Log in

One click and you are in

Login with Facebook Login with Google

Why sign up and log in

Guitar Tabs Explorer
Amy Winehouse bass tabs for Back to black

Bass tabs

Back To Black - Amy Winehouse


Tabbed By : deHufter
e-mail: kurtkill@hotmail.com
Tuning: standard

G|--------------------------------------------------------------------------|
D|--------------------------------------------------------------------------|
A|---5-5---5-5-3--------------1-1--1-----------------3-(4)------------------|
E|----------------3-3---3-3-4--------(1)-6-5-5---5-5------------------------|

Sometimes this lick is being played at the end:
G|---------------------------------------------------------------------------|
D|---------------------------------------------------------------------------|
A|---------------------------------------------------------------------------|
E|---5--3--1--0--------------------------------------------------------------|


Bridge (black......black.....black)
G|--------------------------------------------------------------------------|
D|--------------------------------------------------------------------------|
A|--5-5---5-5----------------8-8---8-8--------------------------------------|
E|-------------6-6---6-6------------------5-5---5-5-------------------------|

2nd time play:
G|----------------------------------------:----------:-----------------------|
D|----------------------------------------:----------:-----------------------|
A|--5-5---5-5-------------------8-8---8-8-:----------:-----------------------|

Almost there ...

Sign in to get your own page with links to favourite songs and more. You are just one click away...

Login with Facebook Login with Google