Search tabs and chords

Search for song, artist or band

Log in

One click and you are in

Login with Facebook Login with Google

Why sign up and log in

Guitar Tabs Explorer
Jeff Williams guitar tabs for Boop

Guitar tabs

Tuning: Standard (E chord diagramEE A chord diagramAA D chord diagramDD G chord diagramGG B chord diagramBB E chord diagramEE)

Difficulty: Intermediate

Solo:
Think I'm gonna faaaaaaaiiiinnnnttttt
e|------------------------9~-12-15b17-17~--12--17b19-19~-12-15b17-15b17-12-11b12-11---|
B|----------------------9----------------------------------------------------------12~|
G|--------------------9---------------------------------------------------------------|
D|-----------------11-----------------------------------------------------------------|
A|------------------------------------------------------------------------------------|
E|------------------------------------------------------------------------------------|

e|------1212--12b14~14~14r12~---------------------------------------------------------|
B|-9-10-----9~--------------12-14-----12~----------------------------------16---------|
G|-------------------------------13-------------------------16b18-16b18--18r16~~~-----|
D|-----------------------------------------14~-16~-18-16~-14.14.----------------------|
A|------------------------------------------------------------------------------------|
E|------------------------------------------------------------------------------------|

Those are 11's 14's and 16's, not 1's 4's and 6's
e|------------------------------------------------------------------------------------|
B|-------------------------------11111111-14141414-16161616-~~~-----------------------|
G|------------------9999-11111111-----------------------------------------------------|
D|-----8888-11111111------------------------------------------------------------------|
A|-9999-------------------------------------------------------------------------------|
E|------------------------------------------------------------------------------------|



************************************

| b  Bend
| ~  Vibrato
| r  Release


************************************

Other versions of Boop

BoopChords

Almost there ...

Sign in to get your own page with links to favourite songs and more. You are just one click away...

Login with Facebook Login with Google