Log in

One click and you are in

Login with Facebook Login with Google

Why sign up and log in

Guitar Tabs Explorer
Hayley Williams bass tabs for Trigger

Bass tabs with lyrics

Tuning: Standard (E A D G)



Intro: (0:00)

*break 4 bars*

Verse 1: (0:11)

*break 32 bars*

All I ever had to say about love is a sad song
I get off on telling everybody what went wrong
It makes me feel like the pain had a purpose
Keeps me believing that maybe it's worth it
Truth is, all I really want is somebody who wants me
Somebody I can count on who won't disappoint me
At first, it seems easy, I vow not to give up
Let 'em debase me while keeping my chin up


Chorus: (1: 20)

*break 16 bars, second bar of each line is cut time*

'Cause I got the trigger, but you hold the gun
How come you never put the safety on?
I got the trigger, but you hold the gun
How come you never put the safety on? Hmm

Interlude: (1:51)

G|----------|---------|---------|---------|
D|----------|---------|---------|---------|
A|-/3-3-3-3-|-3-3-3-3-|-0-0-0-0-|-0-0-0-0-|
E|----------|---------|---------|---------|


Verse 2: (2:00)

So what do people sing about once they finally found it?
Take it for granted, think of how they were better without it
I'd like to imagine I'll never be like that
But if I'm honest, I know I already have

G|---------|---------|---------|---------|---------|---------|---------|---------|
D|---------|---------|---------|---------|---------|---------|---------|---------|
A|-3-3-3-3-|-3-3-3-3-|-0-0-0-0-|-0-0-0-0-|-3-3-3-3-|-3-3-3-3-|-0-0-0-0-|-0-0-0-0-|
E|---------|---------|---------|---------|---------|---------|---------|---------|

G|---------|---------|---------|---------|---------|---------|---------|---------|
D|---------|---------|---------|---------|---------|---------|---------|---------|
A|---------|---------|-0-0-0-0-|-0-0-0-0-|---------|---------|---------|---------|
E|-1-1-1-1-|-1-1-1-1-|---------|---------|-1-1-1-1-|-1-1-1-1-|-3-3-3-3-|-3-3-3-3-|


Chorus: (2:35) *remember some measures are cut time*

'Cause I got the trigger, but you hold the gun
How come you never put the safety on?
I got the trigger, but you hold the gun
How come you never put the safety on? Hmm

G|---------|-----|---------|---------|---------|-----|---------|---------|
D|---------|-----|---------|---------|---------|-----|---------|---------|
A|---------|-0---|---------|---------|-3-------|-0---|---------|---------|
E|-/8------|-----|-1-------|---------|---------|-----|-1-------|---------|

G|---------|-----|---------|---------|---------|-----|---------|---------|
D|---------|-----|---------|---------|---------|-----|---------|---------|
A|-3-------|-0---|---------|---------|-/3------|-0-0-|---------|---------|
E|---------|-----|-1-------|---------|---------|-----|-1-------|------1/-|


Interlude: (3:06)

G|---------|---------|---------|---------|---------|---------|---------|---------|
D|---------|---------|---------|---------|---------|---------|---------|---------|
A|---------|---------|-0-0-0-0-|-0-0-0-0-|-3-3-3-3-|-3-3-3-3-|-0-0-0-0-|-0-0-0-0-|
E|-8-8-8-8-|-8-8-8-8-|---------|---------|---------|---------|---------|---------|


Outro: (3:23)

*break 16 bars, second bar of each line is cut time*

I got the trigger, but you own the gun
How come you never put the safety on?
Yeah, I got the trigger, but you hold the gun
How come you never put the safety on? Hmm


************************************

| /  Slide up

************************************

Almost there ...

Sign in to get your own page with links to favourite songs and more. You are just one click away...

Login with Facebook Login with Google