Log in

One click and you are in

Login with Facebook Login with Google

Why sign up and log in

Guitar Tabs Explorer
Hayley Williams bass tabs for Just a lover

Bass tabs with lyrics

Tuning: Standard (E A D G)


Intro: (0:00)

*break*

 Love is not a friend, it's not a brother / Love is not a Wendy-Moira-mother
 Love has turned me into many others / Now I guess I'm just

Break: (0:28)

 Just a lover

G|---------|
D|---------| (pick up measure)
A|-------5-|
E|---------|

G|---------|---------|---------|---------|---------|---------|---------|---------|
D|---------|---------|---------|---------|---------|---------|---------|-------0-|
A|---------|---------|---------|---------|---------|---------|---------|---3-3---|
E|-3-----3-|---------|-3-3---3-|-------3-|-1-----1-|---------|-1-1---1-|---------|

G|---------|---------|---------|---------|---------|---------|---------|---------|
D|---------|---------|---------|---------|---------|---------|---------|-------0-|
A|---------|---------|---------|---------|---------|---------|---------|---3-----|
E|-3-----3-|---------|-3-3---3-|-------3-|-1-----1-|---------|-1-1---1-|---------|


Verse 1: (0:53)

 Once upon a time when we were school kids / Mix CDs and carpool kids
 No little cameras to witness / Really hope we don't wreck this
 When you coming over?

G|---------|---------|---------|---5-5-4-|---------|---------|---------|---------|
D|-5-------|---------|---------|-5-------|-3-------|---------|---------|---2-0---|
A|---------|---------|---------|---------|---------|---------|---------|-------3-|
E|---------|---------|---------|---------|---------|---------|---------|---------|

G|---------|---------|---------|---5-5-4-|---------|---------|---------|---------|
D|-5-------|---------|---------|-5-------|-3-------|---------|---------|---0-0-0-|
A|---------|---------|---------|---------|---------|---------|---------|---------|
E|---------|---------|---------|---------|---------|---------|---------|---------|


Break: (1:18)

 Just a lover

G|---------|---------|---------|---------|---------|---------|---------|---------|
D|---------|---------|---------|---------|---------|---------|---------|-------0-|
A|---------|---------|---------|---------|---------|---------|---------|---3-3---|
E|-3-----3-|---------|-3-3---3-|-------3-|-1-----1-|---------|-1-1---1-|---------|

G|---------|---------|---------|---------|---------|---------|---------|---------|
D|---------|---------|---------|---------|---------|---------|---------|---------|
A|---------|---------|---------|---------|---------|---------|---------|---------|
E|-3-----3-|---------|-3-3---3-|-------3-|-1-----1-|---------|-1-1---1-|---------|


Verse 2: (1:41) (bass comes in at 2:05)

 Space and time, waking hours before I open my eyes
 In the morning, I feel my heart crack open, one last chorus
 Space and time, waking hours before I open my eyes
 In the morning, I feel my heart crack open, one last chorus
 I'll be singing into empty glasses
 No more music for the masses
 One more hour, one more ugly, stillborn cry
 I know exactly what this is
 Or whatever it was, or whatever it was

**Rest 16 bars**

G|---------|---------|---------|---------|---------|---------|---------|---------|
D|---------|---------|---------|---------|---------|---------|---------|---------|
A|---------|---------|---------|---3-3-2-|---------|---------|---------|---3-3-3-|
E|-3-3-3-3-|-3-3-3-3-|-3-3-3-3-|-3-------|-1-1-1-1-|-1-1-1-1-|-1-1-1-1-|-1-------|
                                            x2
G|---------|---------|---------|---------|---------|---------|---------|---------|
D|---------|---------|---------|---------|---------|---------|---------|---------|
A|---------|---------|---------|---3-3-2-|---------|---------|---------|---------|
E|-3-3-3-3-|-3-3-3-3-|-3-3-3-3-|-3-------|-1-1-1-1-|-1-1-1-1-|-1-1-1-1-|-1-1-1-1-|

Almost there ...

Sign in to get your own page with links to favourite songs and more. You are just one click away...

Login with Facebook Login with Google