Log in

One click and you are in

Login with Facebook Login with Google

Why sign up and log in

Guitar Tabs Explorer
Hayley Williams bass tabs for Inordinary

Bass tabs with lyrics

Tuning: Standard (E A D G)


Verse 1: (0:00)

*break 18 bars*

I don't want your concern / As some consolation prize
And I don't want to be your friend / Or just one of the guys
I am nobody's

Verse 2: (0:33)

*break 18 bars*

We left home when we were teens / I grew bored of simple things
You gave me another chance / A renegade, holding your hand
I was somebody's


Chorus: (1:06)

*break 16 bars*

I wasn't ordinary, ordinary, ordinary / I was inordinary, ordinary
I wasn't ordinary, ordinary, ordinary / I was inordinary, ordinary


Interlude: (1:36)

*break 13 bars*


Verse 3: (1:59)

*break 18 bars*

Life began in seventh grade / When me and mama got away
Came home from school one afternoon / She was waiting in the car for me
She said, "Don't worry"


Verse 4: (2:32)

Started over, Tennessee / Rent was cheap and we were free
I wish that feeling stuck around / There's a beauty to be found
Hmm

G|-4---4h6--|-7-------|---------|---------|-4---4h6--|-7-------|---------|-------2-|
D|----------|---------|-5-------|-5---5---|----------|---------|-5-------|-5-------|
A|----------|---------|---------|---------|----------|---------|---------|---------|
E|----------|---------|---------|---------|----------|---------|---------|---------|

G|-4---4h6--|-7---/9--|---------|-------2-|-4---4h6--|-7-------|---------|---------|---------|---------|
D|----------|---------|-5-------|-5-------|----------|-----7---|-5-------|-5---5-\-|-/5------|---------|
A|----------|---------|---------|---------|----------|---------|---------|---------|---------|---------|
E|----------|---------|---------|---------|----------|---------|---------|---------|---------|---------|


Chorus: (3:06)

In the ordinary, ordinary, ordinary / In the ordinary, ordinary
In the ordinary, ordinary, ordinary / In the ordinary, ordinary
I wasn't ordinary / I was inordinary

G|---------|---------|---------|---------|---------|---------|---------|---------|
D|---------|---------|-0-------|---------|---------|---------|---------|---------|
A|---------|-2-----2-|---------|---------|---------|-2-------|-/7------|---------| x2
E|-3-------|---------|---------|-3-------|-3-------|---------|---------|---------|

G|---------|---------|---------|---------|---------|---------|---------|---------|
D|---------|---------|-0-------|---------|---------|---------|---------|---------|
A|---------|-2-----2-|---------|---------|---------|-2-------|-/7------|---------|
E|-3-------|---------|---------|-3-------|-3-----3-|---------|---------|---------|

G|---------|---------|---------|---------|---------|---------|---------|---------|
D|---------|---------|-0-------|-5-------|-5-----5-|-7-------|-\2------|---------|
A|---------|-2-------|---------|---------|---------|---------|---------|---------|
E|-3-------|---------|---------|---------|---------|---------|---------|---------|


Outro: (4:05)

*break 6 bars*


************************************
| h  Hammer on
| /  Slide up
| \  Slide down

************************************

Almost there ...

Sign in to get your own page with links to favourite songs and more. You are just one click away...

Login with Facebook Login with Google