Log in

One click and you are in

Login with Facebook Login with Google

Why sign up and log in

Guitar Tabs Explorer
Wild Party bass tabs for Connect the dots

Bass tabs

---------------------------------------------------------------------------------------------
              Connect The Dots-Wild Party (Bass Tab)
---------------------------------------------------------------------------------------------

Tabbed by:Mark Donohue
Tuning:Standard

_____________________________________________________________________________________________


[Verse 1] (0:11-0:25)

G|-----------------------------------|-----------------------------------|
D|-----------------------------------|-----------------------------------|
A|--5-5-5-5-7-7-7-7-----------5------|--5-5-5-5---------5-5-5-5-5-5-5-5--|
E|------------------7-7-7-5-7---7-5--|----------7-7-7-7------------------|

G|-----------------------------------|-----------------------------------|
D|-----------------------------------|-----------------------------------|
A|--5-5-5-5-7-7-7-7-----------5------|--5-5-5-5---------5-5-5-5-5-5-5/---|
E|------------------7-7-7-5-7---7-5--|----------7-7-7-7------------------|


[Pre-Chorus] (0:26-0:40)

G|-----------------------------------|-----------------------------------|
D|-----------------------------------|-----------------------------------|
A|--5-5-5-5-7-7-7-7------------------|--5-5-5-5-7-7-7-7------------------|
E|------------------7-7-7-7-7-7-7-7--|------------------7-7-7-7-7-7-7-7--|

G|-----------------------------------|-----------------------------------|
D|-----------------------------------|-----------------------------------|
A|--7--------------------------------|--7--------------------------------|
E|------------------3----------------|------------------5-5-5-5-5-5-5-5--|


[Chorus] (0:41-1:02)

G|-------------------------------------------|--------------------------------------------|
D|-------------------------------------------|--------------------------------------------| (Play
A|--5-5-5-5-5-5-5-5/10-10-10-10-10-10-10-10\-|--5-5-5-5-5-5-5-5/12-12-12-12-12-12-12-12\--|  x3)
E|-------------------------------------------|--------------------------------------------|


[Verse 2] (1:05-1:20)

G|-----------------------------------|-----------------------------------|
D|-----------------------------------|-----------------------------------|
A|--5-5-5-5-7-7-7-7-----------5------|--5-5-5-5---------5-5-5-5-5-5-5-5--|
E|------------------7-7-7-5-7---7-5--|----------7-7-7-7------------------|

G|-----------------------------------|-----------------------------------|
D|-----------------------------------|-----------------------------------|
A|--5-5-5-5-7-7-7-7-----------5------|--5-5-5-5---------5-5-5-5-5-5-5/---|
E|------------------7-7-7-5-7---7-5--|----------7-7-7-7------------------|


[Pre-Chorus] (1:21-1:42)

G|-----------------------------------|-----------------------------------|
D|-----------------------------------|-----------------------------------| (Play x2)
A|--5-5-5-5-7-7-7-7------------------|--5-5-5-5---------5-5-5-5-5-5-5-5--|
E|------------------7-7-7-7-7-7-7-7--|----------7-7-7-7------------------|

G|-----------------------------------|-----------------------------------|
D|-----------------------------------|-----------------------------------|
A|--7--------------------------------|--7--------------------------------|
E|------------------3----------------|------------------5-5-5-5-5-5-5-5--|


[Chorus] (1:43-2:04)

G|-------------------------------------------|--------------------------------------------|
D|-------------------------------------------|--------------------------------------------| (Play
A|--5-5-5-5-5-5-5-5/10-10-10-10-10-10-10-10\-|--5-5-5-5-5-5-5-5/12-12-12-12-12-12-12-12\--|  x3)
E|-------------------------------------------|--------------------------------------------|


[Bridge] (2:05-2:27)

G|-----------------------------------|-----------------------------------|
D|-----------------------------------|-----------------------------------|
A|--7--------------------------------|--5--------------------------------|
E|------------------3----------------|-----------------------------------|

G|-----------------------------------|-----------------------------------|
D|-----------------------------------|-----------------------------------|
A|--7-7-7-7-7-7-7-7\-----------------|------------------5-5-5-5-5-5-5-5--|
E|------------------3-3-3-3-3-3-3-3--|--7-7-7-7-7-7-7-7------------------|

G|-----------------------------------|-----------------------------------|
D|-----------------------------------|-----------------------------------|
A|--7-7-7-7-7-7-7-7\-----------------|--5-5-5-5-5-5-5-5-5-5-5-5-5-5-5-5--|
E|------------------3-3-3-3-3-3-3-3--|-----------------------------------|


[Chorus] (2:35-3:11)

G|-------------------------------------------|--------------------------------------------|
D|-------------------------------------------|--------------------------------------------| (Play
A|--5-5-5-5-5-5-5-5/10-10-10-10-10-10-10-10\-|--5-5-5-5-5-5-5-5/12-12-12-12-12-12-12-12\--|  x5)
E|-------------------------------------------|--------------------------------------------|


[Outro] (3:12-3:30)

G|-------------------------------------------|--------------------------------------------|
D|-------------------------------------------|--------------------------------------------| (Play
A|--5-5-5-5-5-5-5-5/10-10-10-10-10-10-10-10\-|--5-5-5-5-5-5-5-5/12-12-12-12-12-12-12-12\--|  x2)
E|-------------------------------------------|--------------------------------------------|


************************************

| /  Slide up
| \  Slide down

************************************

Almost there ...

Sign in to get your own page with links to favourite songs and more. You are just one click away...

Login with Facebook Login with Google