Log in

One click and you are in

Login with Facebook Login with Google

Why sign up and log in

Guitar Tabs Explorer
Wilbur Soot bass tabs for Your new boyfriend

Bass tabs

Tuning: Standard (E A D G)

come in when he starts singing


Verse 1:

G|----------------|----------------|----------------|----------------|
D|----------------|----------------|----------------|----------------|
A|----------------|----------------|-2--------------|----------------|
E|-3--------------|----------------|----------------|----------------|
G|----------------|----------------|----------------|----------------|
D|----------------|----------------|----------------|----------------|
A|----------------|----------------|-3-3~-----------|-3~-------------|
E|-0--------------|----------------|----------------|----------------|

G|----------------|----------------|----------------|----------------|
D|----------------|----------------|----------------|----------------|
A|----------------|----------------|-2--------------|----------------|
E|-3--------------|----------------|----------------|----------------|

G|----------------|----------------|----------------|----------------|
D|----------------|----------------|----------------|----------------|
A|----------------|----------------|-3--------------|-3--------------|
E|-0--------------|----------------|----------------|----------------|

-pause-


Chorus:

he's in yr bed but i'm in ur twitch chat
G|----------------|----------------|----------------|----------------|
D|----------------|----------------|----------------|----------------|
A|-3--------------|-3--------------|----------------|-------------2-5|
E|----------------|----------------|-3---3-3---3-3-3|-3---3-3-3-5----|

G|----------------|----------------|----------------|----------------|
D|----------------|----------------|----------------|----------------|
A|-3--------------|-3--------------|----------------|---------5-3-2-0|
E|----------------|----------------|-3---3-3---3-3-3|-3---3-3--------|

G|----------------|----------------|----------------|----------------|
D|----------------|----------------|----------------|----------------|
A|-3---3-3-3-3-3-3|-3-----5-----3--|----------------|-------------2--|
E|----------------|----------------|-3---3-3-3-3-3-3|-3-----5--------|

G|----------------|----------------|----------------|----------------|
D|----------------|----------------|----------------|----------------|
A|-3---3-3-3-3-3-3|-3-----5-----3--|-------------0--|-2-----0--------|
E|----------------|----------------|-3---3-3-3-3----|-------------3--|

G|----------------|----------------|----------------|----------------|
D|----------------|----------------|----------------|----------------|
A|-3---3-3-3-3-3-3|-2-----3-----5--|-0--------------|-0--------------|
E|----------------|----------------|----------------|----------------|

-pause-

Bridge:

woo

G|----------------|----------------|----------------|----------------|
D|----------------|----------------|----------------|----------------|
A|----------------|---------2---5--|-2---2-2-2-2-2-2|-5---2---0------|
E|-3---3-3-3-3-3-3|-3---5----------|----------------|-------------3--|

G|----------------|----------------|----------------|----------------|
D|----------------|---------2---5--|----------------|----------------|
A|---------7------|-2---5----------|-3---3-3-3---5--|-3---2---0------|
E|-0---0-0-----0--|----------------|----------------|-------------2--|

G|----------------|----------------|----------------|----------------|
D|----------------|----------------|----------------|---------5---7--|
A|----------------|---------2---5--|-2---2-2-2-2-2-2|-5---7----------|
E|-3---3-3-3-3-3-3|-3---5----------|----------------|----------------|

G|----------------|-4---2----------|----------------|----------------|
D|-------------2--|---------5---2--|----------------|----------------|
A|-7---7-7--------|----------------|-3---3-3-3---5--|-3---2---0------|
E|---------0------|----------------|----------------|-------------2--|


Verse 2:

G|----------------|----------------|----------------|----------------|
D|----------------|----------------|----------------|----------------|
A|----------------|----------------|-2--------------|----------------|
E|-3--------------|----------------|----------------|----------------|

G|----------------|----------------|----------------|----------------|
D|----------------|----------------|----------------|----------------|
A|----------------|----------------|-3-3~-----------|-3~-------------|
E|-0--------------|----------------|----------------|----------------|

G|----------------|----------------|----------------|----------------|
D|----------------|----------------|----------------|----------------|
A|----------------|----------------|-2--------------|----------------|
E|-3--------------|----------------|----------------|----------------|

G|----------------|----------------|----------------|----------------|
D|----------------|----------------|----------------|----------------|
A|----------------|----------------|-3--------------|-3--------------|
E|-0--------------|----------------|----------------|----------------|

G|----------------|----------------|----------------|----------------|
D|-----5-5-----5--|-----5-5--------|-----5-5-----5--|-----5-5--------|
A|---------5h7----|----------------|---------5h7----|----------------|
E|-3--------------|-3-------3-3-5--|-3--------------|-3-------3-3-5--|

G|-----4-4-----4--|-----4-4--------|----------------|----------------|
D|---------2h4----|---------4---3--|-------------5--|----------------|
A|-2--------------|-2--------------|-----7-7-5h7----|-----7-------5--|
E|----------------|----------------|-0--------------|-0-------7------|

G|----------------|----------------|----------------|----------------|
D|----------------|----------------|-----5-5-----5--|-----5----------|
A|-3---3-3-3h5-3--|-3---2---0------|---------5h7----|----------------|
E|----------------|-------------3--|-3--------------|-3-------3---5--|

G|-----4-4-----4--|-----4----------|----------------|----------------|
D|---------2h4----|---------4---3--|-------------5--|----------------|
A|-2--------------|-2--------------|-----7-7-5h7----|-----7-------5--|
E|----------------|----------------|-0--------------|-0-------7------|

G|----------------|----------------|
D|----------------|----------------|
A|-3--------------|-3--------------|
E|----------------|----------------|


Verse 3:

G|----------------|----------------|----------------|----------------|
D|----------------|----------------|----------------|----------------|
A|----------------|----------------|----------------|----------------|
E|-3~-------------|-yeah. that's the whole verse----|----------------|


pause and come back in at the chorus



Chorus:

G|----------------|----------------|----------------|----------------|
D|----------------|----------------|----------------|----------------|
A|-3--------------|-3--------------|----------------|-------------2-5|
E|----------------|----------------|-3---3-3---3-3-3|-3---3-3-3-5----|

G|----------------|----------------|----------------|----------------|
D|----------------|----------------|----------------|----------------|
A|-3--------------|-3--------------|----------------|---------5-3-2-0|
E|----------------|----------------|-3---3-3---3-3-3|-3---3-3--------|

G|----------------|----------------|----------------|----------------|
D|----------------|----------------|----------------|----------------|
A|-3---3-3-3---3--|-3-----5-----3--|----------------|-------------2--|
E|----------------|----------------|-3---3-3-3-3-3-3|-3-----5--------|

G|----------------|----------------|----------------|----------------|
D|----------------|----------------|----------------|----------------|
A|-3---3-3-3---3--|-3-----5-----3--|-------------0--|-2-----0--------|
E|----------------|----------------|-3---3-3-3-3----|-------------3--|

G|----------------|----------------|----------------|----------------|
D|----------------|----------------|----------------|----------------|
A|-3---3-3-3---3--|-3-----5-----3--|-0--------------|-0--------------|
E|----------------|----------------|----------------|----------------|


Bridge:

G|----------------|----------------|----------------|----------------|
D|----------------|----------------|----------------|----------------|
A|----------------|---------2---5--|-2---2-2-2-2-2-2|-2---0----------|
E|-3---3-3-3---3--|-3---5----------|----------------|---------3---2--|

G|----------------|----------------|----------------|----------------|
D|----------------|---------5------|----------------|----------------|
A|---------7------|-----5h7-----7--|-3---3-3-3---5--|-3---2---0------|
E|-0---0-0-----0-0|-0--------------|----------------|-------------2--|

G|----------------|----------------|----------------|----------------|
D|----------------|----------------|----------------|----------------|
A|----------------|---------2---5--|-2---2-2-2-2-2-2|-2---0----------|
E|-3---3-3-3---3--|-3---5----------|----------------|---------3---2--|

G|----------------|----------------|----------------|----------------|
D|----------------|---------5---7--|----------------|----------------|
A|-------------7--|-5---7----------|-3---3-3-3---5--|-3---5---3---0--|
E|-0---0-0-0------|----------------|----------------|----------------|

G|----------------|----------------|----------------|----------------|
D|----------------|----------------|----------------|-2---4---2---0--|
A|----------------|---------2---5--|-2---2-2-2---5--|----------------|
E|-3---3-3-3---3--|-3---5----------|----------------|----------------|

G|----------------|----------------|----------------|----------------|
D|----------------|----------------|----------------|----------------|
A|-7---7-7-----7--|/7---5-------5--|-3---3-3-3---5--|-3---2---0------|
E|---------0------|---------7------|----------------|-------------2--|

G|----------------|----------------|----------------|----------------|
D|----------------|----------------|----------------|----------------|
A|----------------|---------2---5--|-2---2-2-2-2-2-2|-2---7---5---6--|
E|-3---3-3-3---3--|-3---5----------|----------------|----------------|

G|----------------|----------------|----------------|----------------|
D|----------------|----------------|----------------|----------------|
A|-7---7-7-----7--|-7---5-------5--|-3---3-3-3---5--|-3---2---0---2--|
E|---------0------|---------7------|----------------|----------------|

G|----------------|----------------|----------------|-------------7--|
D|----------------|----------------|----------------|-----7---9------|
A|----------------|---------2---5--|-2---2-2-2---5--|/9--------------|
E|-3---3-3-3---3--|-3---5----------|----------------|----------------|

G|----------------|----------------|----------------|----------------|
D|----------------|-5--------------|----------------|----------------|
A|-7---7-7-----7--|-----7---5------|-3---3-3-3---5--|-3---2---0------|
E|---------0------|-------------7--|----------------|-------------2--|


Outro:

G|----------------|----------------|----------------|----------------|
D|----------------|----------------|----------------|----------------|
A|----------------|-------------0--|-2~-------------|-------------0--|
E|-3~-------------|----------------|----------------|----------------|

G|----------------|----------------|----------------|----------------|
D|----------------|----------------|----------------|----------------|
A|----------------|----------------|-3~-------------|----------------|
E|-0~-------------|----------------|----------------|-3--------------|


************************************

| h  Hammer-on
| /  Slide up
| \  Slide down
| ~  Vibrato

************************************

Almost there ...

Sign in to get your own page with links to favourite songs and more. You are just one click away...

Login with Facebook Login with Google