Log in

One click and you are in

Login with Facebook Login with Google

Why sign up and log in

Guitar Tabs Explorer
Wilbur Soot chords for Saline solution ukulele

Saline Solution Ukulele chords - Wilbur Soot

Wilbur Soot chords for Saline solution ukulele

Guitar chords with lyrics

Tuning: G C E A (G C E A)

Notes:
*   Single Strum
~   Pluck open G and then open E
N.C. No chord (Since this is only used in the intro, mute this part)

The strumming is a bit confusing at first, but once you get the hang of it,
it's easy to understand. Highly recommend listening to the song to get the strumming down.
The intro where it's just F, Am, and then C is just a bunch of down strokes and then the
mute part is just the strumming pattern in the song..

Intro:
F F Am C N.C


  F F   Am
A|------x---------------------|
E|-1-1--x----------0-----0----|
C|------x-------0----0--------|
G|-2-2--x--2-----------0------|

  F F   Am
A|------x---------------------|
E|-1-1--x---------------------|
C|------x------0--1--0--1--0--|
G|-2-2--x--2------------------| x4


Verse 1:
F*          Am   C
 I think this time I'm dying
F    Am     C
 I'm not melodramtic
      Em
 I'm just pragmatic beyond any
F        Am      C
 Reasoning for thinking I've
       Em
 Got fucking rabies or something

Chorus:
F*       ~   Am   C
 I think this time I'm dying
F*       ~   Am   C
 I think this time I'm dying


Instrumental:
  F F   Am
A|------x---------------------|
E|-1-1--x----------0-----0----|
C|------x-------0----0--------|
G|-2-2--x--2-----------0------|

  F F   Am
A|------x---------------------|
E|-1-1--x---------------------|
C|------x------0--1--0--1--0--|
G|-2-2--x--2------------------| x4


Verse 2:
F*          Am  C
 I think I've lost my mind
F       Am          C
 Blurring the fact and the fiction
      Em
 While simutaneously fixing
F     Am   C       Em
 Myself up with a girl named Pandol
F     Am       C
 Bite the tablet, elixir
   Em
Disintegrate, mouth's a mixer


Chorus:
F*       ~   Am  C
 I think I've lost my mind
F*       ~   Am  C
 I think I've lost my mind


Instrumental:
 F F   Am
A|------x---------------------|
E|-1-1--x----------0-----0----|
C|------x-------0----0--------|
G|-2-2--x--2-----------0------|

  F F   Am
A|------x---------------------|
E|-1-1--x---------------------|
C|------x------0--1--0--1--0--|
G|-2-2--x--2------------------| x2


Bridge:
Dm*        Cm*     Gb
 If I could break up one more night
Dm*         Cm*     Gb
 Maybe I could wake up and feel alright
Dm*        Cm*       Gb
 My optimistically set alarm clock time
Dm*       Cm*         Gb
 Serves only to mock me with flashing lights


Instrumental:
 F F   Am
A|------x---------------------|
E|-1-1--x----------0-----0----|
C|------x-------0----0--------|
G|-2-2--x--2-----------0------|

  F F   Am
A|------x---------------------|
E|-1-1--x---------------------|
C|------x------0--1--0--1--0--|
G|-2-2--x--2------------------| x4


Verse 3:
F*          Am   C
 I think I've made my choice
F    Am          C
 I'm a disease playing victim
     Em
Slip the fate, slip the victory
F*           Am   C
 I think I've made my choice
F    Am       C
 Sit secluded in hatred
     Em
Void the plans friends are making
F            Am  C
 I think I've found my voice
F    Am           C
 I'm a leech sucking blood bag
    Em
Taste defeat, it's a sandbag


Outro:
F*     Am   C
 Saline solution
F*     Am    C
 Saline solution to all your
F*     Am   C
 Saline solution
F*     Am    C   F*
 Saline solution to all your problems


***********************************

| x  Dead note

***********************************

Almost there ...

Sign in to get your own page with links to favourite songs and more. You are just one click away...

Login with Facebook Login with Google