Log in

One click and you are in

Login with Facebook Login with Google

Why sign up and log in

Guitar Tabs Explorer
Wilbur Soot chords for La jolla ukulele

Guitar chords

Tuning: G C E A (G C E A)


NOTE:
The finger picking in ths song is off centred compared to the lyrics,
so you might need to listen carefully for when lyrics are introduced
For example:
       You know it takes a lot to move me

A|----5-10-5---5---|-----5--10--5----5---| |----0h2---| x4
E|0-7--------7---7-|-0--7----------7---7-| |--3-----3-|
C|-----------------|---------------------| |0---------|
G|-----------------|---------------------| |----------|


Intro: x1

  Intro Part 1: x2

  A|----5-10-5---5---| x2
  E|0-7--------7---7-|
  C|-----------------|
  G|-----------------|

  A|----0h2---| x4
  E|--3-----3-|
  C|0---------|
  G|----------|

  Intro Part 2: x2

  A|----5-10-5---5---| x1
  E|0-7--------7---7-|
  C|-----------------|
  G|-----------------|

  A|----7-10-7---7---| x1
  E|0-7--------7---7-|
  C|-----------------|
  G|-----------------|

  A|----0h2---| x4
  E|--3-----3-|
  C|0---------|
  G|----------|


Verse 1: x4

A|----5-10-5---5---| x2
E|0-7--------7---7-|
C|-----------------|
G|-----------------|

A|----0h2---| x4
E|--3-----3-|
C|0---------|
G|----------|


Verse 2: x1

  Verse 2 Part 1: x2

  A|----5-10-5---5---| x1
  E|0-7--------7---7-|
  C|-----------------|
  G|-----------------|

  A|----7-10-7---7---| x1
  E|0-7--------7---7-|
  C|-----------------|
  G|-----------------|

  A|----0h2---| x4
  E|--3-----3-|
  C|0---------|
  G|----------|

  Verse 2 Part 2: x2

  A|----5-10-5---5---| x2
  E|0-7--------7---7-|
  C|-----------------|
  G|-----------------|

  A|----0h2---| x4
  E|--3-----3-|
  C|0---------|
  G|----------|


Pre Verse 3: x2

A|----5-10-5---5---| x1
E|0-7--------7---7-|
C|-----------------|
G|-----------------|

A|----5-10-5---5---| x1
E|--7--------7---7-|
C|0----------------|
G|-----------------|

A|--2-5-10-5-2-5-2---| x1
E|-----------------0-|
C|2----------------0-|
G|-------------------|


Verse 3: x4

A|----5-10-5---5---| x1
E|0-7--------7---7-|
C|-----------------|
G|-----------------|

A|----5-10-5---5---| x1
E|--7--------7---7-|
C|0----------------|
G|-----------------|

A|--2-5-10-5-2-5-2---| x1
E|-----------------0-|
C|2----------------0-|
G|-------------------|


Verse 4: x2

  Verse 4 Part 1: x2

  A|----5-10-5---5---| x2
  E|0-7--------7---7-|
  C|-----------------|
  G|-----------------|

  A|----0h2---| x4
  E|--3-----3-|
  C|0---------|
  G|----------|

  Verse 4 Part 2: x2

  A|----5-10-5---5---| x1
  E|0-7--------7---7-|
  C|-----------------|
  G|-----------------|

  A|----7-10-7---7---| x1
  E|0-7--------7---7-|
  C|-----------------|
  G|-----------------|

  A|----0h2---| x4
  E|--3-----3-|
  C|0---------|
  G|----------|


************************************

| h Hammer-on
|

************************************

Almost there ...

Sign in to get your own page with links to favourite songs and more. You are just one click away...

Login with Facebook Login with Google