Log in

One click and you are in

Login with Facebook Login with Google

Why sign up and log in

Guitar Tabs Explorer
Wilbur Soot guitar tabs for La jolla

Guitar tabs with lyrics

Tuning: Standard (E A D G B E)


It's a fairly simple song, with one pattern switching between A chord diagramA minorAm and A chord diagramAm7Am7 throughout the verses and a
slight variation in the bridge.

Intro Part 1: x2

e|------------------|
B|------1-----------|
G|----0---0---0-----|
D|--2-------2---2---|x2
A|0-----------------|
E|------------------|

e|------------------|
B|------------------|
G|------------------|
D|----0h2-----------|x4
A|--3-----3---------|
E|1-----------------|


Intro Part 2: x2

e|------------------|
B|------1-----------|
G|----0---0---0-----|
D|--2-------2---2---|x1
A|0-----------------|
E|------------------|

e|------------------|
B|------1-----------|
G|----2---2---2-----|
D|--2-------2---2---|x1
A|0-----------------|
E|------------------|

e|------------------|
B|------------------|
G|------------------|
D|----0h2-----------|x4
A|--3-----3---------|
E|1-----------------|


Verse 1: (Each playthrough of this sequence acquaints to one bar of lyrics)

e|------------------|
B|------1-----------|
G|----0---0---0-----|
D|--2-------2---2---|x2
A|0-----------------|
E|------------------|

e|------------------|
B|------------------|
G|------------------|
D|----0h2-----------|x4
A|--3-----3---------|
E|1-----------------|

You know it takes a lot to move me
So if you figure it out, tell me
I trace figures on your smile lines
Will conform and lay to cure me?


Verse 2: (Each playthrough of each sequence acquaints to one bar of the lyrics below the tab)

e|------------------|
B|------1-----------|
G|----0---0---0-----|
D|--2-------2---2---|x1
A|0-----------------|
E|------------------|

e|------------------|
B|------1-----------|
G|----2---2---2-----|
D|--2-------2---2---|x1
A|0-----------------|
E|------------------|

e|------------------|
B|------------------|
G|------------------|
D|----0h2-----------|x4
A|--3-----3---------|
E|1-----------------|

And I'm lonely
There I said it


e|------------------|
B|------1-----------|
G|----0---0---0-----|
D|--2-------2---2---|x2
A|0-----------------|
E|------------------|

e|------------------|
B|------------------|
G|------------------|
D|----0h2-----------|x4
A|--3-----3---------|
E|1-----------------|

Nine million people


e|------------------|
B|------1-----------|
G|----0---0---0-----|
D|--2-------2---2---|x1
A|0-----------------|
E|------------------|

e|------------------|
B|------1-----------|
G|----0---0---0-----|
D|--2-------2---2---|x1
A|0----------------3|
E|-----------------1|

I always seem to add them up


Bridge: (Each playthrough of this sequence acquaints to one bar of lyrics, let the final pinch on the
the A chord diagramA majorA and A chord diagramE MajorE string ring out)

e|------------------|
B|------1-----------|
G|----0---0---0-----|
D|--2-------2---2---|x1
A|0-----------------|
E|------------------|

e|------------------|
B|------1-----------|
G|----0---0---0-----|
D|--2-------2---2---|x1
A|------------------|
E|1-----------------|

e|------------------|
B|------1-----------|
G|----0---0---0-----|
D|--2-------2---2---|x1
A|-----------------3|
E|3----------------1|

I could go away
I could pack my things and be gone before you wake
You know I've tried hard to love me too
It always seems to fall in through


Verse 3: (Each playthrough of each sequence acquaints to one bar of the lyrics below the tab)

e|------------------|
B|------1-----------|
G|----0---0---0-----|
D|--2-------2---2---|x2
A|0-----------------|
E|------------------|

e|------------------|
B|------------------|
G|------------------|
D|----0h2-----------|x4
A|--3-----3---------|
E|1-----------------|

Maybe one day I'll live in La Jolla
Drinking cocktails out over the water


e|------------------|
B|------1-----------|
G|----0---0---0-----|
D|--2-------2---2---|x1
A|0-----------------|
E|------------------|

e|------------------|
B|------1-----------|
G|----2---2---2-----|
D|--2-------2---2---|x1
A|0-----------------|
E|------------------|

e|------------------|
B|------------------|
G|------------------|
D|----0h2-----------|x4
A|--3-----3---------|
E|1-----------------|

My own personal sunset
To give each day its own diploma


e|------------------|
B|------1-----------|
G|----0---0---0-----|
D|--2-------2---2---|x2
A|0-----------------|
E|------------------|

e|------------------|
B|------------------|
G|------------------|
D|----0h2-----------|x4
A|--3-----3---------|
E|1-----------------|

And you know it's funny
Amid my backseat taxi jaunts


e|------------------|
B|------1-----------|
G|----0---0---0-----|
D|--2-------2---2---|x1
A|0-----------------|
E|------------------|

e|------------------|
B|------1-----------|
G|----2---2---2-----|
D|--2-------2---2---|x1
A|0-----------------|
E|------------------|

e|------------------|
B|------------------|
G|------------------|
D|----0h2-----------|x4
A|--3-----3---------|
E|1-----------------|

Trying to ignore the skyline


e|------------------|
B|------1-----------|
G|----0---0---0-----|
D|--2-------2---2---|x1
A|0-----------------|
E|------------------|

e|------------------|
B|------1-----------|
G|----0---0---0-----|
D|--2-------2---2---|x1
A|0----------------3|
E|-----------------1|

So I don't figure out where you are


************************************


| h   Hammer-on


************************************

↓ Add and view comments below ↓

What do you think about this song and these tabs?

Add your comments, questions, rant or a thumbs up below.

Almost there ...

Sign in to get your own page with links to favourite songs and more. You are just one click away...

Login with Facebook Login with Google