Log in

One click and you are in

Login with Facebook Login with Google

Why sign up and log in

Guitar Tabs Explorer
Phil Wickham bass tabs for This is amazing grace

This Is Amazing Grace bass tab by Phil Wickham

Phil Wickham bass tabs for This is amazing grace

Bass tabs

Intro:
G|-----------------------------------------------------------------------------|
D|-----------------------------------------------------------------------------|
A|-----------------------------------4\6-6-6-6-6-6-6-6-6-6-6-6-6-6-6-6-6-6-6-6-|
E|-6-6-6-6-6-6-6-6-6-6-6-6-6-6-6-6-6-------------------------------------------|

G|-----------------------------------------------------------------------------|
D|-----------------------------------------------------------------------------|
A|-----------------------------------4\6-6-6-6-6-6-6-6-6-6-6-6-6-6-6-6-6-6-6-6-|
E|-6-6-6-6-6-6-6-6-6-6-6-6-6-6-6-6-6-------------------------------------------|
Verse 1:
G|---------------------------------------------------------------------------|
D|---------------------------------------------------------------------------|
A|---------------------------------4-4-4-4-4-4-4-4-4-4-4-4-4-4-4-4-4-4-4-4-4-|
E|-6-6-6-6-6-6-6-6-6-6-6-6-6-6-6-6-------------------------------------------|

G|---------------------------------------------------------------------------|
D|---------------------------------------------------------------------------|
A|-10-10-10-10-10-10-10-10-8-8-8-8-8-8-8-8-8-8-8-6-6-6-6-6-6-6-6-6-6-6-6-6-6-|
E|---------------------------------------------------------------------------|


Chorus:
G|----------------------------------------------------------------------------|
D|----------------------------------------------------------------------------|
A|---------------------------------4-4-4-4-4-4-4-4-4-4-4-4-4-4-4-4-4-4-4-4-4--|
E|-6-6-6-6-6-6-6-6-6-6-6-6-6-6-6-6--------------------------------------------|
                                        x2
G|----------------------------------------------------------------------------|
D|----------------------------------------------------------------------------|
A|-10-10-10-10-10-10-10-10-10-10-10-8-8-8-8-8-8-8-8-8-8-8-8-8-8-8-8-8-8-(6h8)-|
E|----------------------------------------------------------------------------|

Instrumental:
G|-----------------------------------------------------------------------------|
D|-----------------------------------------------------------------------------|
A|-----------------------------------4\6-6-6-6-6-6-6-6-6-6-6-6-6-6-6-6-6-6-6-6-|
E|-6-6-6-6-6-6-6-6-6-6-6-6-6-6-6-6-6-------------------------------------------|


Verse 2:
G|----------------------------------------------------------------------------|
D|----------------------------------------------------------------------------|
A|---------------------------------4-4-4-4-4-4-4-4-4-4-4-4-4-4-4-4-4-4-4-4-4--|
E|-6-6-6-6-6-6-6-6-6-6-6-6-6-6-6-6--------------------------------------------|

G|----------------------------------------------------------------------------|
D|----------------------------------------------------------------------------|
A|-10-10-10-10-10-10-10-10-10-10-10-8-8-8-8-8-8-8-8-8-8-8-8-8-8-8-8-8-8-(6h8)-|
E|----------------------------------------------------------------------------|

G|---------------------------------------------------------------------------|
D|---------------------------------------------------------------------------|
A|---------------------------------4-4-4-4-4-4-4-4-4-4-4-4-4-4-4-4-4-4-4-4-4-|
E|-6-6-6-6-6-6-6-6-6-6-6-6-6-6-6-6-------------------------------------------|

G|---------------------------------------------------------------------------|
D|---------------------------------------------------------------------------|
A|-10-10-10-10-10-10-10-10-8-8-8-8-8-8-8-8-8-8-8-6-6-6-6-6-6-6-6-6-6-6-6-6-6-|
E|---------------------------------------------------------------------------|


Bridge:(Come in with drums.)
G|---------------------------------------------------------------------------|
D|---------------------------------------------------------------------------|
A|---------------------------------4-4-4-4-4-4-4-4-4-4-4-4-4-4-4-4-4-4-4-4-4-|
E|-6-6-6-6-6-6-6-6-6-6-6-6-6-6-6-6-------------------------------------------|
           *Play soft and slowly build up*
G|---------------------------------------------------------------------------|
D|---------------------------------------------------------------------------|
A|-10-10-10-10-10-10-10-10-8-8-8-8-8-8-8-8-8-8-8-6-6-6-6-6-6-6-6-6-6-6-6-6-6-|
E|---------------------------------------------------------------------------|


Chorus:
G|----------------------------------------------------------------------------|
D|----------------------------------------------------------------------------|
A|---------------------------------4-4-4-4-4-4-4-4-4-4-4-4-4-4-4-4-4-4-4-4-4--|
E|-6-6-6-6-6-6-6-6-6-6-6-6-6-6-6-6--------------------------------------------|
                                        x2
G|----------------------------------------------------------------------------|
D|----------------------------------------------------------------------------|
A|-10-10-10-10-10-10-10-10-10-10-10-8-8-8-8-8-8-8-8-8-8-8-8-8-8-8-8-8-8-(6h8)-|
E|----------------------------------------------------------------------------|


Outro:(Outro is the same as Intro.)
G|-----------------------------------------------------------------------------|
D|-----------------------------------------------------------------------------|
A|-----------------------------------4\6-6-6-6-6-6-6-6-6-6-6-6-6-6-6-6-6-6-6-6-|
E|-6-6-6-6-6-6-6-6-6-6-6-6-6-6-6-6-6-------------------------------------------|

G|-----------------------------------------------------------------------------|
D|-----------------------------------------------------------------------------|
A|-----------------------------------4\6-6-6-6-6-6-6-6-6-6-6-6-6-6-6-6-6-6-6-6-|
E|-6-6-6-6-6-6-6-6-6-6-6-6-6-6-6-6-6-------------------------------------------|

Standard Song Layout:

Intro:

Verse 1:

Chorus:

Verse 2:

Chorus:

Bridge:

Chorus:

Outro:

Song In Notes:

Intro:  | Bb-D#-Bb-D#

Verse 1: | Bb-D#-G-F-D#

Chorus: | Bb-D#-G-F

Verse 2: | Bb-D#-G-F-Bb-D#-G-F-D#

Bridge: | Bb-D#-G-F-D#

"If you have any additions to the song please feel free to comment them below. I will also be coming out with
a video tutorial soon at www.YouTube.com/TrevorBeecher check it out if you'd like. Have fun, and God BLESS!"
-Trevor Beecher

************************************

| \ Slide down
| x Dead note
| h Hammer-on

Almost there ...

Sign in to get your own page with links to favourite songs and more. You are just one click away...

Login with Facebook Login with Google