Log in

One click and you are in

Login with Facebook Login with Google

Why sign up and log in

Guitar Tabs Explorer
Phil Wickham bass tabs for Living hope

Bass tabs with lyrics

Tuning: Standard (E A D G)

Key: Eb

Difficulty: Intermediate

Living Hope - Phil Wickham
Key  = Eb
Time = 4/4
Tempo = 71


Intro:
 | Eb       | Ab2       | Eb       | Ab2       |
 (No bass)


Verse 1:
 | Eb       | Bbsus      | Ab2   Cm   | Bbsus      |
 | Eb       | Bbsus      | Ab2   Bbsus  | Eb       |
 | Ab       | Eb       | Cm7       | Bbsus      |
 | Eb       | Bbsus      | Ab2   Bbsus  | Eb       |
 | Ab       |
 (No bass)

 Verse 2:
  Eb        Bbsus       Ab2   Cm    Bbsus
G|-----------------|-3---------------|-1-------5-------|-3---------------|
D|-1---------------|-----------------|-----------------|-----------------|
A|-----------------|-----------------|-----------------|-----------------|
E|-----------------|-----------------|-----------------|-----------------|
  1 + 2 + 3 + 4 +  1 + 2 + 3 + 4 +  1 + 2 + 3 + 4 +  1 + 2 + 3 + 4 +

  Eb        Bbsus       Ab2   Bbsus   Eb
G|-----------------|-3---------------|-1-------3-------|-----------------|
D|-1---------------|-----------------|-----------------|-1---------------|
A|-----------------|-----------------|-----------------|-----------------|
E|-----------------|-----------------|-----------------|-----------------|
  1 + 2 + 3 + 4 +  1 + 2 + 3 + 4 +  1 + 2 + 3 + 4 +  1 + 2 + 3 + 4 +

  Ab        Eb        Cm7        Bbsus
G|-----------------|-----------------|-----------------|-----------------|
D|-----------------|-1---------------|-----------------|-----------------|
A|-----------------|-----------------|-3---------------|-1---------------|
E|-4---------------|-----------------|-----------------|-----------------|
  1 + 2 + 3 + 4 +  1 + 2 + 3 + 4 +  1 + 2 + 3 + 4 +  1 + 2 + 3 + 4 +

  Eb        Bbsus       Ab2   Bbsus   Eb
G|-----------------|-3---------------|-1-------3-------|-----------------|
D|-1---------------|-----------------|-----------------|-1-1-1-1-1-1-1-1-|
A|-----------------|-----------------|-----------------|-----------------|
E|-----------------|-----------------|-----------------|-----------------|
  1 + 2 + 3 + 4 +  1 + 2 + 3 + 4 +  1 + 2 + 3 + 4 +  1 + 2 + 3 + 4 +

Chorus 1:
  Ab2   Eb    Bb   Cm    Ab2   Eb    Bb   Cm Bb
G|-----------------|-----------------|-----------------|-----------------|
D|-----------------|-----------------|-----------------|-----------------|
A|---------6-6-6-6-|-----------------|---------6-6-6-6-|-----------------|
E|-4-4-4-4---------|-6-6-6-6-8-8-8-8-|-4-4-4-4---------|-6-6-6-6-8-8-6-6-|
  1 + 2 + 3 + 4 +  1 + 2 + 3 + 4 +  1 + 2 + 3 + 4 +  1 + 2 + 3 + 4 +

  Ab2   Eb    Bb   Cm Bb  Ab  Eb/Bb Bb  Eb
G|-----------------|-----------------|-----------------|-----------------|
D|-----------------|-----------------|-----------------|-----------------|
A|---------6-6-6-6-|-----------------|-----------------|-6---------------|
E|-4-4-4-4---------|-6-6-6-6-8-8-6-6-|-4-4-4-4-6-6-6-6-|-----------------|
  1 + 2 + 3 + 4 +  1 + 2 + 3 + 4 +  1 + 2 + 3 + 4 +  1 + 2 + 3 + 4 +

  Cm/Eb
G|-----------------|
D|-----------------|
A|(6)--------------|
E|-----------------|
  1 + 2 + 3 + 4 +


Verse 3:
 | Eb       | Bb       | Ab2   Cm7   | Bb       |
 | Eb       | Bb/D      | Ab2/C  Bb   | Eb       |
 (No bass)

  Eb        Bb        Ab2   Cm7    Bb
G|---------------78|-----------------|-----------------|-----------------|
D|--------------8--|-8-----8-8-------|-6------s10------|-8-----8-8-------|
A|-6-----------6---|-----------------|-----------------|-----------------|
E|-----------------|-----------------|-----------------|-----------------|
  1 + 2 + 3 + 4 +  1 + 2 + 3 + 4 +  1 + 2 + 3 + 4 +  1 + 2 + 3 + 4 +

  Eb        Bb        Ab2   Bb    Cm7   Eb/G
G|-----------------|-----------------|-----------------|-5---------------|
D|-----------------|-8-----8-8-------|-6-------8-------|---------5-------|
A|-6---------------|-----------------|-----------------|-----------------|
E|-----------------|-----------------|-----------------|-----------------|
  1 + 2 + 3 + 4 +  1 + 2 + 3 + 4 +  1 + 2 + 3 + 4 +  1 + 2 + 3 + 4 +

  Ab2   Bb    Eb
G|-----------------|-----------------|-----------------|
D|-6-------8-------|-----------------|-----------------|
A|-----------------|-6-6-6-6-6-6-6-6-|-6-6-6-6-6-6-6-6-|
E|-----------------|-----------------|-----------------|
  1 + 2 + 3 + 4 +  1 + 2 + 3 + 4 +  1 + 2 + 3 + 4 +


Chorus 2:
  Ab   Eb    Bb   Cm    Ab   Eb    Bb   Cm Bb
G|-----------------|-----------------|-----------------|-----------------|
D|-----------------|-----------------|-----------------|-----------------|
A|---------6-6-6-6-|-----------------|---------6-6-6-6-|-----------------|
E|-4-4-4-4---------|-6-6-6-6-8-8-8-8-|-4-4-4-4---------|-6-6-6-6-8-8-6-6-|
  1 + 2 + 3 + 4 +  1 + 2 + 3 + 4 +  1 + 2 + 3 + 4 +  1 + 2 + 3 + 4 +

  Ab   Eb    Bb   Cm Bb  Ab  Eb/Bb Bb  Eb
G|-----------------|-----------------|-----------------|-----------------|
D|-----------------|-----------------|-----------------|-----------------|
A|---------6-6-6-6-|-----------------|-----------------|-6-6-6-6-6-6-6-6-|
E|-4-4-4-4---------|-6-6-6-6-8-8-6-6-|-4-4-4-4-6-6-6-6-|-----------------|
  1 + 2 + 3 + 4 +  1 + 2 + 3 + 4 +  1 + 2 + 3 + 4 +  1 + 2 + 3 + 4 +

  Ab   Eb    Bb   Cm    Ab   Eb    Bb   Cm Bb
G|-----------------|-----------------|-----------------|-----------------|
D|-----------------|-----------------|-----------------|-----------------|
A|---------6-6-6-6-|-----------------|---------6-6-6-6-|-----------------|
E|-4-4-4-4---------|-6-6-6-6-8-8-8-8-|-4-4-4-4---------|-6-6-6-6-8-8-6-6-|
  1 + 2 + 3 + 4 +  1 + 2 + 3 + 4 +  1 + 2 + 3 + 4 +  1 + 2 + 3 + 4 +

  Ab   Eb    Bb   Cm Bb  Ab  Eb/Bb Bb  Cm   Eb/G
G|-----------------|-----------------|-----------------|-----------------|
D|-----------------|-----------------|-----------------|-----------------|
A|---------6-6-6-6-|-----------------|-----------------|-----------------|
E|-4-4-4-4---------|-6-6-6-6-8-8-6-6-|-4-4-4-4-6-6-6-6-|-8-8-8-8-3-3-3-3-|
  1 + 2 + 3 + 4 +  1 + 2 + 3 + 4 +  1 + 2 + 3 + 4 +  1 + 2 + 3 + 4 +

  Ab  Eb/Bb Bb  Cm   Eb/G   Ab  Eb/Bb Bb  Eb
G|-----------------|-----------------|-----------------|-----------------|
D|-----------------|-----------------|-----------------|-----------------|
A|-----------------|-----------------|-----------------|-6---------------|
E|-4-4-4-4-6-6-6-6-|-8-8-8-8-3-3-3-3-|-4-4-4-4-6-6-6-6-|-----------------|
  1 + 2 + 3 + 4 +  1 + 2 + 3 + 4 +  1 + 2 + 3 + 4 +  1 + 2 + 3 + 4 +


*************************************************************************

| s = slide

Almost there ...

Sign in to get your own page with links to favourite songs and more. You are just one click away...

Login with Facebook Login with Google