Log in

One click and you are in

Login with Facebook Login with Google

Why sign up and log in

Guitar Tabs Explorer
Phil Wickham tabs for I adore you

Guitar tabs

Album: Phil Wickham


b=Bend
r=R.elease from bend
/=slide
h=hammer on
p=pull off
~=vibrato note
( )= Ghost Note(s). Let Note(s) ring out
x= Don't play note
Intro
e|--------------------------------------------------16(16)-----------------------|
A chord diagramBB|------------------12----14--14--14--14--------------------16(16)-------17(17)--|
A chord diagramG+G|--13--11--13-------------------------------------------------------------------|
A chord diagramD MajorD|-------------------------------------------------------------------------------|
A chord diagramA augmentedA|-------------------------------------------------------------------------------|
A chord diagramE MajorE|-------------------------------------------------------------------------------|

--------------------------------------------------12--12-12--11-11-11---9--9-----|
------------------12----14--14--14--14------------14--14-14--12-12-12---11-11----|
--13--11--13---------------------------------------------------------------------|
---------------------------------------------------------------------------------|
---------------------------------------------------------------------------------|
---------------------------------------------------------------------------------|

--------------------------------------------------16(16)-------------------------|
-----------------12----14--14--14--14----------------------16(16)-------17(17)---|
--13--11--13---------------------------------------------------------------------|
---------------------------------------------------------------------------------|
---------------------------------------------------------------------------------|
---------------------------------------------------------------------------------|
									  Mercy......
-----11-11-11-11-11-11-11-11-------9--9--9--9--9--9--9--9------9-(9)-------------|
-----12-12-12-12-12-12-12-12-------11-11-11-11-11-11-11-11-----11(11)------------|
---------------------------------------------------------------9-(9)-------------|
---------------------------------------------------------------------------------|
---------------------------------------------------------------------------------|
---------------------------------------------------------------------------------|

 ...so lovely...          ...Glory...streams from your face so lovely

Verse
-------------------0(0)---|-----------------------------------------0(0)--------|
-------------------5(5)---|---12(12)--------------------------------5(5)--------|
-------------------4(4)---|---11(11)--------------------------------4(4)--------|
---------9/--------6(6)---|---9-(9)--------------9/---6(6)----------6(6)--------|
--------------------------|-----------------------------------------------------|
--------------------------|-----------------------------------------------------|

------------------------------------------------------------------------|
------------------------------------------------------------------------|
------------------------------------------------------------------------|
-9----9-9-9-9-9--9--9--9--9--9--9--9--9---8-8--8--8--8--8--8------------|
--------------11-11-11-11-11-11-11-11-11-----9--9--9--9--9--9-----------|
------------------------------------------------------------------------|

*Chorus*
Play 16 times then ... 16 times also
-------------------|--------|
----12-------------|--14----|
----11-------------|--13----|
----9--------------|--11----|
-------------------|--------|
-------------------|--------|

-------------|--9-------|
-----12------|--11------|
-----11------|--11------|
------9------|--10------|
-------------|----------|
-------------|----------|

   Notes before "Breakdown"
|-----9-(11)---|
|----11-(11)---|
|----14-(14|---|
|--------------|
|--------------|
|--------------|

-------------------------------------------------------16(16)-------------------------------|
------------------12----14--14--14--14----------------------16(16)-------17(17)-------------|
--13--11--13--------------------------------------------------------------------------------|
--------------------------------------------------------------------------------------------|
--------------------------------------------------------------------------------------------|
--------------------------------------------------------------------------------------------|

--------------------------------------------------12--12-12-12-12-12-12-12-12-12------------|
------------------12----14--14--14--14-----14--14-14--14-14-14-14-14-14-14---12(12)---------|
--13--11--13------------------------------------------------------------------------11(11)--|
-------------------------------------------------------------------------------------9-(9)--|
--------------------------------------------------------------------------------------------|
--------------------------------------------------------------------------------------------|

Beats to the rhythm of your heart...

Verse 2                    (Play soft)
----------------------------------------------------------------------------------------------|
-(12)--------------------------5-(5)-----------------------------------12(12)----------5-(5)--|
-(11)--------------------------4-(4)-------------------9--8(8)/6-------11(11)----------4-(4)--|
--(9)--------------------------6-(6)-----------6(6)/9------------------9--(9)----------6-(6)--|
----------------------------------------------------------------------------------------------|
----------------------------------------------------------------------------------------------|

--------------------------------------------------------------------|
--------------------------------------------------------------------|
----------------6--8(8)/6-6--4--4---4----3----3--3--3--3--3--3--3---|
-------6(6)/9-9-----------------------------4--4--4--4--4--4--4--4--|
--------------------------------------------------------------------|
----4---------------------------------------------------------------|

*Chorus*

*Bridge*

(Acoustic Guitar) Repeats
---0-0-0-0-0-0-0-0--0-0-0-0-0-0-0-0--0-0-0-0-0-0-0-0--0-0-0-0-0-0-0-0--|
---0-0-0-0-0-0-0-0--0-0-0-0-0-0-0-0--0-0-0-0-0-0-0-0--0-0-0-0-0-0-0-0--|
---6-6-6-6-6-6-6-6--4-4-4-4-4-4-4-4--6-6-6-6-6-6-6-6--1-1-1-1-1-1-1-1--|
---6-6-6-6-6-6-6-6--4-4-4-4-4-4-4-4--6-6-6-6-6-6-6-6--2-2-2-2-2-2-2-2--|
---4-4-4-4-4-4-4-4--2-2-2-2-2-2-2-2--4-4-4-4-4-4-4-4--2-2-2-2-2-2-2-2--|
-----------------------------------------------------------------------|

(Electric Guitar)
----------------------------------------------------------------------------------------|
----------------------------------------------------------------------------------------|
--6/8\6/8(8)---8/9\8-8---8/13-13-13-13---13-9-13-9-13-9-13-9--14-11-14-11-14-11-14-11---|
----------------------------------------------------------------------------------------|
----------------------------------------------------------------------------------------|
----------------------------------------------------------------------------------------|

---------------------------------------------------------------------------|
-----------------10--------------------------------------------------------|
--13-9-13-9-11-9---11-13-9-13-9-13-9-13-9-13-9-13-9-13-9-13-9--------------|
---------------------------------------------------------------------------|
---------------------------------------------------------------------------|
---------------------------------------------------------------------------|
                                         I A...
---------------------------------------------------|
--10-10-10-10------11-11-11-11-14-14-14-14---------|
--11-11-11-11------11-11-11-11-11-11-11-11---------|
---------------------------------------------------|
---------------------------------------------------|
---------------------------------------------------|

*Chorus*

Fade out....

Other versions of I Adore You

I adore youChords
I adore you (Ver. 2)Chords
I adore you (Ver. 3)Chords

Almost there ...

Sign in to get your own page with links to favourite songs and more. You are just one click away...

Login with Facebook Login with Google