Log in

One click and you are in

Login with Facebook Login with Google

Why sign up and log in

Guitar Tabs Explorer
Phil Wickham bass tabs for Cannons

Bass tabs

Tuning: Standard (E A D G)

Difficulty: Novice

Cannons - Phil Wickham

BEADG 5 string
INTRO
G|--------|--------|--------|--------|--------|--------|--------|--------|
D|--------|--------|--------|--------|--------|--------|--------|--------|
A|--------|55555554|--------|--------|--------|55555554|--------|--------|
E|55555555|--------|22222222|77777777|55555555|--------|22222222|77777777|
B|--------|--------|--------|--------|--------|--------|--------|--------|


VERSE 1
G|--------|--------|--------|--------|--------|--------|--------|--------|
D|--------|--------|--------|--------|--------|--------|--------|--------|
A|--------|--------|--------|--------|----55--|--------|55--33--|--------|
E|--------|--------|--------|--------|33------|55--00--|--------|00--00--|
B|--------|--------|--------|--------|--------|--------|--------|--------|


CHORUS
G|--------|--------|--------|--------|--------|--------|--------|--------|
D|--------|--------|--------|--------|--------|--------|--------|--------|
A|--------|55555554|--------|--------|--------|55555554|--------|--------|
E|55555555|--------|22222222|77777777|55555555|--------|22222222|77777777|
B|--------|--------|--------|--------|--------|--------|--------|--------|


INSTRUMENTAL
G|--------|--------|--------|--------|
D|--------|--------|--------|--------|
A|--------|55555554|--------|--------|
E|55555555|--------|22222222|77777777|
B|--------|--------|--------|--------|

VERSE 2
G|--------|--------|--------|--------|--------|--------|--------|--------|
D|--------|--------|--------|--------|--------|--------|--------|--------|
A|----55--|--------|55--33--|--------|----55--|--------|55--33--|--------|
E|33------|55--00--|--------|00--00--|33------|55--00--|--------|00--00--|
B|--------|--------|--------|--------|--------|--------|--------|--------|


CHORUS
G|--------|--------|--------|--------|--------|--------|--------|--------|
D|--------|--------|--------|--------|--------|--------|--------|--------|
A|--------|55555554|--------|--------|--------|55555554|--------|--------|
E|55555555|--------|22222222|77777777|55555555|--------|22222222|77777777|
B|--------|--------|--------|--------|--------|--------|--------|--------|


BRIDGE
G|--------|--------|--------|--------|--------|--------|--------|
D|00000000|----2222|00000000|----2222|--------|--------|22222222|
A|--------|0000----|--------|0000----|22222222|--------|--------|
E|--------|--------|--------|--------|--------|22222222|--------|
B|--------|--------|--------|--------|--------|--------|--------|

PAUSE


CHORUS
G|--------|--------|--------|--------|--------|--------|--------|--------|
D|--------|--------|--------|--------|--------|--------|--------|--------|
A|--------|55555554|--------|--------|--------|55555554|--------|--------|
E|55555555|--------|22222222|77777777|55555555|--------|22222222|77777777|
B|--------|--------|--------|--------|--------|--------|--------|--------|


OUTRO
G|--------|--------|--------|--------|--------|--------|--------|--------|
D|--------|--------|--------|--------|--------|--------|--------|--------|
A|--------|55555554|--------|--------|--------|55555554|--------|--------|
E|55555555|--------|22222222|77777777|55555555|--------|22222222|77777775|
B|--------|--------|--------|--------|--------|--------|--------|--------|

Almost there ...

Sign in to get your own page with links to favourite songs and more. You are just one click away...

Login with Facebook Login with Google