GuitarTabsExplorer icon
GuitarTabsExplorer icon

Log in

Video

Songbook

  • Log in to add and see bookmarks

Last visited songs

    No songs visited yet...

Who Are You by The Who

Bass tabs

  • Difficulty: Intermediate
ğŸŽ¸ Intro:


G|--------|--------------|---------|-----------------|-----------------|--------------|
D|--------|--------------|---------|-14~-12~---------|-----------------|--------------|
A|--------|--------19/12/|/7-------|---------14~-13~-|-12~-10~-12~-----|-----10-12-14-|
E|--------|--------------|---------|-----------------|-------------10~-|-12~----------|

                                    x16|
G|---------12---9/|/7-------|------5-7-|-----------|---------|/-----------\|
D|-12--14---------|---------|-5-7------|-----------|---------||-----------||
A|----------------|---------|----------|-7---------|-------7-||---7-----7-||
E|----------------|---------|----------|---0-------|---------|\-0-----0---/|


Verses:

G|--------|--------|---------|--------------------|
D|--------|--------|---------|--------------------|
A|-----7~-|-----5~-|---------|-3-2----------------|
E|--0-----|--0-----|--0--5~--|-----5-2--3-3-3/12--|
ğŸŽ¸ Chorus 1:

G|/-----------\|
D||-----------||
A||---7-----7-|| x8
E|\-0-----0---/|

ğŸŽ¸ Chorus 1:

       x7|           x8|
G|/-----------\|----------|/-----------\|
D||-----------||-5-7------||-----------||
A||---7-----7-||------5-7-||---7-----7-||
E|\-0-----0---/|----------|\-0-----0---/|


Solo/Interlude Sequence:

         x17|         x4|        x23|         x4|
G|----|/-----------\|/---------|--------\|----|/-----------\|/---------|--------\|
D|----||-----------|||---------|--------||----||-----------|||---------|--------||
A|----||-----------|||-------7-|5~------||----||-----------|||-------7-|--7-5~--||
E|-0~-|\-let ring--/|\-0~------|--------/|-0~-|\-let ring--/|\-0~------|--------/|


ğŸŽ¸ Outro:
      x20|         x2|         x2|         x4|
G|/-----------\|/-----------------\|/-----------------\|/-----------------\|------|
D||-----------|||-----------------|||-----------------|||-----------------||------|
A||---7-----7-|||-----------------|||-----------------|||-----------------||------|
E|\-0-----0---/|\-0-0-0-0-0-0-0-0-/|\-3-3-3-3-3-3-3-3-/|\-5-5-5-5-5-5-5-5-/|-0~~~~|


************************************

| /  Slide up
| \  Slide down
| ~  Vibrato

************************************

[ Privacy | About us ]

Welcome to the guitar community

Why join and log in?
- Get songbook with favourite songs
- Get custom made front page
- Submit chords and tabs
- Submit guitar-cover videos
- Get a lot of thumbs up for your work

Songbook

Last visited songs

Site
Home
Search
Community
Submit chords
Submit video

Search tabs and chords

Browse by artist

A B C D E F G H I J K L M N O P Q R S T U V W X Y Z #


Menu

Search

Video

Bookmark

Login