Search tabs and chords

Search for song, artist or band

Log in

One click and you are in

Login with Facebook Login with Google

Why sign up and log in

Guitar Tabs Explorer
The Who guitar chords for Sunrise

Guitar chords

Sunrise
by Pete Townshend
Recorded by the Who on the "The Who Sell Out" album.
Transcribed by phillip@phoenix.princeton.edu

Chords used:
F chord diagramFF      XXX037
Bbm chord diagramBbmBbm/F chord diagramFF  XXX048
Dm chord diagramDmDm/F chord diagramFF   XXX057
F7sus4 chord diagramF7sus4F7sus4 XXX068
Fmaj7 chord diagramFmaj7Fmaj7  XXX077
Bb chord diagramBbBb/F chord diagramFF   XXX088
C chord diagramCC      XX0775
Bb chord diagramBbBb/C chord diagramCC   XX0553
G chord diagramGG      5X765X
Gmaj7 chord diagramGmaj7Gmaj7  5X665X
Gmin7  5X5555
Cmaj7 chord diagramCmaj7Cmaj7  X5767X
Cmin7  X5X565
Cmin6  X5X465
G6 chord diagramG6G6     5X465X
B11 chord diagramB11B11    4X442X
B7b5   3X342X
Emaj7 chord diagramEmaj7Emaj7  2X332X
C#11 chord diagramC#11C#11   6X664X
C chord diagramCC#7b5  5X564X
F#maj7 chord diagramF#maj7F#maj7 4X554X
D11 chord diagramD11D11    7X775X
D7b5   6X665X

The jazz chords used in the middle section are derived from the
following shapes:

G chord diagramGG       Gmaj7 chord diagramGmaj7Gmaj7   Gmin7   G6 chord diagramG6G6
------  ------  ------  ------
------  ------  ------  ------
------  ------  ------  ------
------  ------  ------  --4---
5---5-  5---5-  5-5555  5---5-
---6--  --66--  ------  ---6--
--7---  ------  ------  ------
------  ------  ------  ------

Cmaj7 chord diagramCmaj7Cmaj7   Cmin7   Cmin6
------  ------  ------
------  ------  ------
------  ------  ------
------  ------  ---4--
-5----  -5-5-5  -5---5
---6--  ----6-  ----6-
--7-7-  ------  ------
------  ------  ------

B11 chord diagramB11B11     B7b5
------  ------
----2-  ----2-
------  3-3---
4-44--  ---4--
------  ------
------  ------
------  ------

The guitar is tuned down one whole step.

Intro (eighth notes)

    F chord diagramFF                  Bbm chord diagramBbmBbm/F chord diagramFF              Dm chord diagramDmDm/F chord diagramFF               F7sus4 chord diagramF7sus4F7sus4
D|--7-----7---------|--8-----8---------|--7-----7---------|--8-----8---------|
A|--3-----3---------|--4-----4---------|--5-----5---------|--6-----6---------|
F| chord diagramF|F|--0-0-0-0-0-0-0-0-|--0-0-0-0-0-0-0-0-|--0-0-0-0-0-0-0-0-|--0-0-0-0-0-0-0-0-|
C| chord diagramC|C|------------------|------------------|------------------|------------------|
G|------------------|------------------|------------------|------------------|
D|------------------|------------------|------------------|------------------|

    Fmaj7 chord diagramFmaj7Fmaj7              Bb chord diagramBbBb(no 3rd)/F chord diagramFF       Fmaj7 chord diagramFmaj7Fmaj7               F7sus4 chord diagramF7sus4F7sus4
D|--7-----7---------|--8-----8---------|--7-----7---------|--8-----8---------|
A|--7-----7---------|--8-----8---------|--7-----7---------|--6-----6---------|
F| chord diagramF|F|--0-0-0-0-0-0-0-0-|--0-0-0-0-0-0-0-0-|--0-0-0-0-0-0-0-0-|--0-0-0-0-0-0-0-0-|
C| chord diagramC|C|------------------|------------------|------------------|------------------|
G|------------------|------------------|------------------|------------------|
D|------------------|------------------|------------------|------------------|

    Dm chord diagramDmDm                 Bbm chord diagramBbmBbm/F chord diagramFF
-|--7-----7---------|--8-----8---------|
-|--5-----5---------|--4-----4---------|
-|--0-0-0-0-0-0-0-0-|--0-0-0-0-0-0-0-0-|
-|------------------|------------------|
-|------------------|------------------|
-|------------------|------------------|

F chord diagramFF                 Bbm chord diagramBbmBbm/F chord diagramFF                    C chord diagramCC
You take away the breath I ...
F chord diagramFF                     Bbm chord diagramBbmBbm/F chord diagramFF                 C chord diagramCC
You appear and the morning ...
    Bb chord diagramBbBb/C chord diagramCC            C chord diagramCC
And then again ...
Bb chord diagramBbBb/C chord diagramCC             C chord diagramCC
Having seen ....
Bb chord diagramBbBb/C chord diagramCC             C chord diagramCC
Once more ...
Bb chord diagramBbBb/C chord diagramCC              C chord diagramCC
My morning put ...

G chord diagramGG         Gmaj7 chord diagramGmaj7Gmaj7   Gmin7                    Cmaj7 chord diagramCmaj7Cmaj7    Cmin7  Cmin6
You take away the breath I ...
G chord diagramGG     Gmaj7 chord diagramGmaj7Gmaj7           Gmin7                 Cmaj7 chord diagramCmaj7Cmaj7   Cmin7  Cmin6
You appear and the morning ...
    Gmaj7 chord diagramGmaj7Gmaj7 G6 chord diagramG6G6        B11 chord diagramB11B11       B7b5         Emaj7 chord diagramEmaj7Emaj7    B11 chord diagramB11B11   C#11 chord diagramC#11C#11 C chord diagramCC#7b5
And then again I'll turn ....
     F#maj7 chord diagramF#maj7F#maj7           C#11 chord diagramC#11C#11   C chord diagramCC#7b5 D11 chord diagramD11D11            D7b5
Once more you'll disappear   ...


Interlude (triplets)
-|------------0-----------0-|------------0-----------0-|------------0-----------
0-|
-|------5---5-------5---5---|------5---5-------5---5---|------4---4-------4---4-
--|
-|----7---7-------7---7-----|----7---7-------7---7-----|----6---6-------6---6---
--|
-|--7-----------7-----------|--6-----------6-----------|--6-----------6---------
--|
-|--------------------------|--------------------------|------------------------
--|
-|--------------------------|--------------------------|------------------------
--|

-|------------0-----------0-|------------0-----------0-|------------0-----------
0-|
-|------5---5-------5---5---|------4---4-------4---4---|------4---4-------4---4-
--|
-|----7---7-------7---7-----|----6---6-------6---6-----|----6---6-------6---6---
--|
-|--6-----------6-----------|--6-----------6-----------|--5-----------5---------
--|
-|--------------------------|--------------------------|------------------------
--|
-|--------------------------|--------------------------|------------------------
--|

-|------------0-----------0-|------------0-----------0-|
-|------8---8-------8---8---|------7---7-------7---7---|
-|----5---5-------5---5-----|----5---5-------5---5-----|
-|--0-----------0-----------|--0-----------0-----------|
-|--------------------------|--------------------------|
-|--------------------------|--------------------------|

F chord diagramFF                     Bbmin/F chord diagramFF            C chord diagramCC
Sometimes I feel that this ...
F chord diagramFF                      Bbmin/F chord diagramFF           C chord diagramCC
Each day I spend is an ...
Bb chord diagramBbBb/C chord diagramCC                C chord diagramCC
And then again I'll ..
Bb chord diagramBbBb/C chord diagramCC             C chord diagramCC
Remembering ..
Bb chord diagramBbBb/C chord diagramCC     C chord diagramCC
My every day ...
Bb chord diagramBbBb/C chord diagramCC                    C chord diagramCC
thinking of ...

      Bb chord diagramBbBb/C chord diagramCC            C chord diagramCC
Times I've let ...
   Bb chord diagramBbBb/C chord diagramCC            C chord diagramCC
My head's ..
   F chord diagramFF        C11 chord diagramC11C11 C7b5 Fmaj7 chord diagramFmaj7Fmaj7
My eyes see ...
    E11 chord diagramE11E11          E7b5
The chances ...
     Amin7    Amin6   C11 chord diagramC11C11              C9 chord diagramC9C9
Opportunities tossed ....

F chord diagramFF                       Bbm chord diagramBbmBbm/F chord diagramFF              C chord diagramCC
You take away the breath I was ..
F chord diagramFF                     Bbm chord diagramBbmBbm/F chord diagramFF                 C chord diagramCC
You appear and the ...
    Bb chord diagramBbBb/C chord diagramCC            C chord diagramCC
And then again ...
Bb chord diagramBbBb/C chord diagramCC             C chord diagramCC
Having seen ..
Bb chord diagramBbBb/C chord diagramCC                  C chord diagramCC
And then again ..
Bb chord diagramBbBb/C chord diagramCC              C chord diagramCC
My morning put ....

Almost there ...

Sign in to get your own page with links to favourite songs and more. You are just one click away...

Login with Facebook Login with Google