Log in

One click and you are in

Login with Facebook Login with Google

Why sign up and log in

Guitar Tabs Explorer
The Who guitar chords for Imagine a man

Guitar chords

Imagine a Man
By the Who
>From The Who By Numbers, 1975
Written by Pete Townshend

Capo on 2

A chord diagramBB       x2444(2)
B7sus2  x27422  and x27472  (alt: x24222)
E/B     x2645x (also E6/B  x2642x)
Em/B    x2545x (also Em6/B x2542x)
A chord diagramAsus2Asus2   5x2425
A chord diagramC# minorC#m     x46654
A chord diagramD#mD#m     x68876
A chord diagramE MajorE       xx2454
A chord diagramBMaj7Bmaj7   x28872

  A chord diagramBB          B7sus2     E/B        Em/B
|----------|----------|----------|----------|
|----4-----|----2-----|----5-----|----5---5-|
|---4--4---|---4--4---|---4--4---|---4-4----|
|--4----4--|--7----7--|--6----6--|--5---5---|
|-2------2-|-2------2-|-2------2-|-2-----2--|
|----------|----------|----------|----------|

  A chord diagramBB          B7sus2     E/B        Em6/B
|----------|----2-----|----------|-----------|
|----4-----|----7-----|----5-----|----2------|
|---4--4---|---4--4---|---4--4---|---4--4----|
|--4----4--|--7----7--|--6----6--|--5----5---|
|-2------2-|-2------2-|-2------2-|-2------2--|
|----------|----------|----------|-----------|

|B            |B7sus2
Imagine a man
     |E/B          |Em/B
Not a child ...
                    |B          |B7sus2  |E6/B   |Em6/B   |
But a plain man ...

Imagine the ...

Imagine a ...

Imagine a ...

[chorus]
   |A2 |B   |C#m|D#m|E   |   |   |
And you will ...
A chord diagramE MajorE               |B    |E/B A chord diagramBB  | A chord diagramBB A chord diagramBMaj7Bmaj7 | A chord diagramBMaj7Bmaj7 E/B |  A chord diagramBB   |    |
You will see ....

Imagine events...

Imagine a fence...

Imagine a girl....

Imagine a past....

[repeat chorus]

And you will see the ...

Imagine a man...

Imagine a ....

[repeat chorus]

And you will ...


litgo@aol.com

Other versions of Imagine A Man

Imagine a manTabs

Almost there ...

Sign in to get your own page with links to favourite songs and more. You are just one click away...

Login with Facebook Login with Google