Log in

One click and you are in

Login with Facebook Login with Google

Why sign up and log in

Guitar Tabs Explorer
The Who bass tabs for I can see for miles

Bass tabs

who-i_can_see_for_miles.btab


Basstab by Jan Bjorklund, Finland;
jani_bjorklund@yahoo.se
You are welcome to request for basstabs!
Bienvenidos a pedirme transcripciones para el bajo!
Fingering and positions as suggested by TablEdit.

TablEdited by Jan Bjorklund

Tuning : E A D G 	Time Signature: 4/4

  |       |       |       |          |       |       |       |
||---------------------------------|---------------------------------||
|*2---2---2---2---2---2---2---2----|-2---2---2---2---2---2---2---2---*|
|*---------------------------------|---------------------------------*|
||---------------------------------|---------------------------------||

  |       |       |       |          |       |       |       |
|-2--------------------------------|-4--------------------------------|
|----------------------------------|----------------------------------|
|----------------------------------|----------------------------------|
|----------------------------------|----------------------------------|

  |       |       |       |          |       |       |       |
|-2--------------------------------|-4-------4---4---4---4---4---4----|
|----------------------------------|----------------------------------|
|----------------------------------|----------------------------------|
|----------------------------------|----------------------------------|

  |       |       |       |          |       |       |       |
|-4---4---4---4---4---4---4---4----||------------9-----------8---11---|
|----------------------------------|*--------11------9----------------|
|----------------------------------|*12-------------------------------|
|----------------------------------||---------------------------------|

  |       |       |       |          |       |       |       |
|-------------7---7---5---4-------||-2--------------------------------|
|-----------------------------6---*|----------------------------------|
|-7-------------------------------*|----------------------------------|
|---------------------------------||----------------------------------|

  |       |       |       |          |       |       |       |
|-4--------------------------------|-2--------------------------------|
|----------------------------------|----------------------------------|
|----------------------------------|----------------------------------|
|----------------------------------|----------------------------------|

  |       |       |       |          |       |       |       |
|-4-------4---4---4---4---4---4----||---------------------------------|
|----------------------------------|*2---2---2---2---2---2---2---2----|
|----------------------------------|*---------------------------------|
|----------------------------------||---------------------------------|

  |       |       |       |          |       |       |       |
|-0-----------2-------------------|||2---2---2---2---2---2---2---2----|
|-----2---2-------2---2---2---2---*|*---------------------------------|
|---------------------------------*|*---------------------------------|
|---------------------------------|||---------------------------------|

  |       |       |       |          |       |       |       |
|-2---2---2---2---2---2---2---2---||-7--------------------------------|
|---------------------------------*|----------------------------------|
|---------------------------------*|----------------------------------|
|---------------------------------||----------------------------------|

  |       |       |       |          |       |       |       |
|-9--------------------------------|-7--------------------------------|
|----------------------------------|----------------------------------|
|----------------------------------|----------------------------------|
|----------------------------------|----------------------------------|

  |       |       |       |          |       |       |       |
|-9--------------------------------|----------------------------------|
|----------------------------------|-2---2---2---2---2---2---2---2----|
|---------7---7---7---7---7---7----|----------------------------------|
|----------------------------------|----------------------------------|

  |       |       |       |          |       |       |       |
|-------------2-------1---4--------|-----------------14------14-------|
|---------4-------2----------------|-------------14------14------14---|
|-5--------------------------------|-12--12--15-----------------------|
|----------------------------------|----------------------------------|

  |       |       |       |          |       |       |       |
|-2---2---2---2---2---2---2---2----|-------------2---------------4----|
|----------------------------------|---------4-------2-------4--------|
|----------------------------------|-5--------------------------------|
|----------------------------------|----------------------------------|

  |       |       |       |          |       |       |       |
|-----6---9-------6---9---6--------|----------------------------------|
|-7-----------7---------------7----|----------------------------------|
|----------------------------------|----------------------------------|
|----------------------------------|----------------------------------|

Almost there ...

Sign in to get your own page with links to favourite songs and more. You are just one click away...

Login with Facebook Login with Google