Search tabs and chords

Search for song, artist or band

Log in

One click and you are in

Login with Facebook Login with Google

Why sign up and log in

Guitar Tabs Explorer
The Who bass tabs for Heaven and hell

Bass tabs

Heaven and Hell(intro)
The Who
TablEdited by Poppamies
Tuning : E A D G 	Time Signature: 4/4

 |       |       |       |        |       |       |       |
|--------------------------------|--------------------------------|
|------------------------5-------|1-------1-----------1---0-------|
|--------------------3/5-----5---|----------------------------3---|
|3-------3-----------------------|--------------------------------|

 |       |       |       |        |       |       |       |
|--------------------------------|--------------------------------|
|--------------------------------|----------------0---------------|
|3---3---3---3-3---1-3---1-------|----0---2---3---------------3---|
|----------------------------3---|3-------------------------------|

 |       |       |       |        |       |       |       |
|--------------------------------|--------------------------------|
|0-------------------------------|----0---1-----------------------|
|----3---1-----1---1-3---1-------|3---------------0/1-----1---1---|
|------------3---------------3---|--------------------------------|

 |       |       |       |        |       |       |       |
|------------------5---5-3-------|--------------------------------|
|------------3---5-----------5---|--------------------------------|
|3-------3-----------------------|----------------3-5-5---3---5---|
|--------------------------------|3-------3-----------------------|

 |       |       |       |        |       |       |       |
|--------------------------------|--------------------5---5---3---|
|----------------3-------3-------|----------------3---------------|
|------------3/5-------------5---|------------3/5-----------------|
|3-------3-----------------------|3-------3-----------------------|

 |       |       |       |        |       |       |       |
|--------------------------------|--------------------------------|
|5-------5-------3-------3-------|5-------5---5---3-------3---3---|
|--------------------------------|--------------------------------|
|--------------------------------|--------------------------------|

 |

Almost there ...

Sign in to get your own page with links to favourite songs and more. You are just one click away...

Login with Facebook Login with Google