Log in

One click and you are in

Login with Facebook Login with Google

Why sign up and log in

Guitar Tabs Explorer
The Who bass tabs for Happy jack

Bass tabs

who/happy_jack.btab

Basstab by Jan Bjorklund, Finland;
jani_bjorklund@yahoo.se
You are welcome to request for basstabs!
Bienvenidos a pedirme transcripciones para el bajo!
Be sure to use a monospaced font!

TablEdited by Jan Bjorklund for Fred

Tuning : E A D G 	Time Signature: 4/4 and 5/4

 tempo 128    |    |    |    |    |    |
|------------0---4-------0-------|--------------------------------|
|0-----2-4-----------2-----4-0---|0---------------0---------------|
|--------------------------------|------------0---------------0---|
|--------------------------------|--------------------------------|

 |    |    |    Happy  Jack wasn't... |    |    |
|--------------------------------|----------------------------------------|
|0---------------0---------------|0---------------0---------------2-------|
|------------0---------------0---|------------0---------------0-------0---|
|--------------------------------|----------------------------------------|

 |    |    |    |    |    |    |    |  He
|--------------------------------|--------------------------------|
|0---------------0---------------|0---------------0---------------|
|------------0---------------0---|------------0---------------0---|
|--------------------------------|--------------------------------|

 lived in|the sand...  |    |
|----------------------------------------|
|0---------------0---------------2-------|
|------------0---------------0-------0---|
|----------------------------------------|

 |    |    |    |    |    |    |    |
|--------------------------------|------------0---4-------0-------|
|0---------------0---------------|0-----2-4-----------2-----4-0---|
|------------0---------------0---|--------------------------------|
|--------------------------------|--------------------------------|

 |    |    |    |    |    |    |    |    |
|--------------------------------|----------------------------------------|
|0---------------0---------------|0---------------0---------------2-------|
|------------0---------------0---|------------0---------------0-------0---|
|--------------------------------|----------------------------------------|

 |    |    |    |    |    |    |    |
|--------------------------------|--------------------------------|
|0---------------0---------------|0---------------0---------------|
|------------0---------------0---|------------0---------------0---|
|--------------------------------|--------------------------------|

 |    |    |    |    |
|----------------------------------------|
|0---------------0---------------2-------|
|------------0---------------0-------0---|
|----------------------------------------|

 |    |    |    |    |    |    |    |
|--------------------------------|--------------------------------|
|0---------------0---------------|0-----------0---4-------0-------|
|------------0---------------0---|--------0-----------0-------0---|
|--------------------------------|--------------------------------|

 |    |    |    |    |    |    |    |
|--------------------------------|--------------------------------|
|0-----------0-----------0-------|0-----------0-----------0-------|
|----4---0-----------0-------0---|--------0-----------0-------0---|
|--------------------------------|--------------------------------|

 |    |    |    |  The kids... |    |    |
|--------------------------------|0-------0-------0---0---0-0-0---|
|0-----------0-----------0---0---|--------------------------------|
|--------0-----------0-----------|--------------------------------|
|--------------------------------|--------------------------------|

 |    |    |    |    |    |    |    |
|2-------2---2---2---2-2-2---2---|0-------0---0-0-0---0---0---0---|
|--------------------------------|--------------------------------|
|--------------------------------|--------------------------------|
|--------------------------------|--------------------------------|

 |    |    |    |    |    |    |    |
|2-------2-------2-------2-------|2-------2---2-2-2---------------|
|--------------------------------|--------------------------------|
|--------------------------------|--------------------------------|
|--------------------------------|--------------------------------|

 |    |    |    |  They couldn't|stop Jack...  |    |
|2-----------2-2-2---2---2-------|----------------------------------------|
|--------------------------------|0---------------0---------------2-------|
|--------------------------------|------------0---------------0-------0---|
|--------------------------------|----------------------------------------|

 |    |    |    |    |    |    |    |
|--------------------------------|--------------------------------|
|0---------------0---------------|0---------------0---------------|
|------------0---------------0---|------------0---------------0---|
|--------------------------------|--------------------------------|

 |    |    |    |    |
|----------------------------------------|
|0---------------0---------------2-------|
|------------0---------------0-------0---|
|----------------------------------------|

 |    |    |    |    |    |    |    |
|--------------------------------|--------------------------------|
|0---------------0---------------|--------------------------------|
|------------0---------------0---|0-0-0---0---0-0-0-0-0---0---0---|
|--------------------------------|--------------------------------|

 |    |    |    |    |    |    |    |
|--------------------------------|--------------------------------|
|0-0-0---0---0-0-0-0-0---0---0---|--------------------------------|
|--------------------------------|0-0-0---0---0-0-0-0-0---0---0---|
|--------------------------------|--------------------------------|

 |    |    |    |    |    |    |    |
|--------------------------------|--------------------------------|
|0-0-0---0---0---0-0-0---0---0---|--------------------------------|
|--------------------------------|0-0-0---0---0---0-0-0---0---0---|
|--------------------------------|--------------------------------|

 |    |    |    |    |    |    |    |
|--------------------------------|--------------------------------|
|0---------------0-----------0---|--------------------------------|
|------------0-------------------|0-0-0---0---0---0-0-0---0---0---|
|--------------------------------|--------------------------------|

 |    |    |    |    |    |    |    |
|--------------------------------|--------------------------------|
|0---------------0---------------|0---------------0---------------|
|------------0---------------0---|------------0---------------0---|
|--------------------------------|--------------------------------|

 |    |    |    |    |
|----------------------------------------|
|0---------------0---------------2-------|
|------------0---------------0-------0---|
|----------------------------------------|

 |    |    |    |    |    |    |    |
|--------------------------------|--------------------------------|
|0---------------0---------------|0---------------0---------------|
|------------0---------------0---|------------0---------------0---|
|--------------------------------|--------------------------------|

 |    |    |    |    |
|----------------------------------------|
|0---------------0---------------2-------|
|------------0---------------0-------0---|
|----------------------------------------|

 |    |    |    |    |    |    |    |
|--------------------------------|--------------------------------|
|0---------------0-----------0---|--------------------------------|
|------------0-------------------|0---0-0-0---0---0-0-0---0---0---|
|--------------------------------|--------------------------------|

 |    |    |    |    |    |    |    |
|--------------------------------|--------------------------------|
|0---0-0-0---0---0-0-0---0---0---|--------------------------------|
|--------------------------------|0---0-0-0---0---0-0-0---0---0---|
|--------------------------------|--------------------------------|

 |    |    |    |    |    |    |    |
|--------------------------------|--------------------------------|
|0---0-0-0---0---0---0---0---0---|--------------------------------|
|--------------------------------|0-------------------------------|
|--------------------------------|------3-3---3---3---3---3---3---|

 |    |    |    |    |    |    |    |
|--------------------------------|--------------------------------|
|----------------0-------0-------|--------------------------------|
|0---0-------0-------------------|0-------------------------------|
|--------------------------------|----3-3-3---3---3---3-3-3---3---|

 |    |    |    |    |    |    |    |
|--------------------------------|--------------------------------|
|--------------------------------|--------------------------------|
|0---0-----------0-0-0---0-------|0-0-0-0-0-------0---0-----------|
|--------------------------------|--------------------------------|

 |    |    |    |    |    |    |    |
|--------------------------------|--------------------------------|
|--------------------------------|--------------------------------|
|0---0---0---0---0---0---0---0---|0---0-0-0---0---0-0-0-0-0---0---|
|--------------------------------|--------------------------------|

 |    |    |    |    |    |    |    |
|--------------------------------|--------------------------------|
|--------------------------------|--------------------------------|
|--------------------------------|0-------0-------0-------0-------|
|3-------3-------3-------3-------|--------------------------------|

 |    |    |    |    |    |    |    |
|--------------------------------|--------------------------------|
|--------------------------------|--------------------------------|
|--------------------------------|0-------0-------0-------0-------|
|3-------3-------3-------3-------|--------------------------------|

 |    |    |    |    |    |    |    |
|--------------------------------|--------------------------------|
|--------------------------------|--------------------------------|
|0-------0---0-0-0-0-0-0-0---0---|0-------0-----------0---0---0---|
|--------------------------------|--------------------------------|

 |    |    |    |    |
|----------------------------------------|
|0---------------0---------------2-------|
|------------0---------------0-------0---|
|----------------------------------------|

 |    |    |    |    |    |    |    |
|--------------------------------|--------------------------------|
|0---------------0---------------|0---------------0---------------|
|------------0---------------0---|------------0---------------0---|
|--------------------------------|--------------------------------|

 |    |    |    |    |
|----------------------------------------|
|0---------------0---------------2-------|
|------------0---------------0-------0---|
|----------------------------------------|

 |    |    |    |    |    |    |    |
|--------------------------------|------------0---4-------0-------|
|0---------------0---------------|0-----2-4-----------2-----4-0---|
|------------0---------------0---|--------------------------------|
|--------------------------------|--------------------------------|

 |    |    |    |
|--------------------------------|
|0-------------------------------|
|--------------------------------|
|--------------------------------|

Almost there ...

Sign in to get your own page with links to favourite songs and more. You are just one click away...

Login with Facebook Login with Google