Search tabs and chords

Search for song, artist or band

Log in

One click and you are in

Login with Facebook Login with Google

Why sign up and log in

Guitar Tabs Explorer
The Who guitar tabs for Charles atlas

Guitar tabs

|F             |C7        |F         A chord diagramF7F7 |F            |
-------|5-------------|6--5--4-3-|-------------|-------------|
-------|--------6-----|----------|6---6-----4--|6------------|
-------|--5-------5---|----------|-------5-----|----5-----5--|
-------|--------------|----------|-------------|-------------|
-3-5-7-|--------------|----------|-------------|-------------|
-------|--------------|----------|-------------|-------------|

|F           |C7         |F                       |F            |
                         The Charles Atlas course, with Dynamic
|5-----------|6--5--4-3--|----5-------8--8--------|-5-----------|
|--------6---|---5-------|6---6-------6--6--------|----------x--|
|--5-------5-|---------5-|---------------5--------|-----5\---x--|
|------------|-----------|------------------------|----------x--|
|------------|-----------|------------------------|8------------|
|------------|-----------|------------------------|-------------|

|Dm7       |Am              |G             |Bdim Ddim|
 Tension can turn you   into a beast of a man
|-----5----|------------5---|3-----3/4-----|4----/7--|
|----------|5----------5----|--------------|3----/6--|
|7\(5)-----|5-----5---------|--4-----------|4----/7--|
|0--------7|-7------7-------|5--5----------|3----/6--|
|----------|----------------|--------------|---------|
|----------|----------------|--------------|---------|

                                         {2/4}{4/4}
|F           |C7           |             |    |F7
|--5---------|6---5--4--3--|-------------|----|-------
|-----6--6---|5---5--5--5--|6------------|----|-------
|-----5------|5---5--------|----8--7--6--|5---|2------
|-----7------|-------------|3------------|----|1------
|-----8------|-------------|----6--5--4--|3---|3------
|------------|-------------|-------------|---1|-------

Almost there ...

Sign in to get your own page with links to favourite songs and more. You are just one click away...

Login with Facebook Login with Google