Log in

One click and you are in

Login with Facebook Login with Google

Why sign up and log in

Guitar Tabs Explorer
The Who bass tabs for Boris the spider

Bass tabs

Here is Boris the Spider by the Who

 Boris the Spider
 The Who
 transcribed by: Fred

 this is what I got out of it if you happen to have any better theories
 for this song E-mail me at freddy@soonet.ca
 since as you might notice this isn't really perfect..

G-|---------------------------|--4-4-----2-2-------------------------|
D-|---------------------------|------5-5------3-/-5------------------|
A-|-5-4-3-2-1-----------------|--------------------------------------|
E-|----------0--3-3-3-3-3-3-3-|----------------------3-3-3-3-3-3-3---|
G-|--4-4-----2-2---------------------|-4-4-----3-3----------------------|
D-|------5-5-----3-/-5---------------|-----5-5-----4-\-2----------------|
A-|--------------------3-3-3-3-3-3-3-|-------------------2-2-2-2-2-2-2--|
E-|----------------------------------|----------------------------------|


G-|--4-4-----2-2---------------------|----------------------------------------|
D-|------5-5-----3-/-5-5-5-5-5-5-5-5-|----------------------------------------|
A-|----------------------------------|----------------------------------------|
E-|----------------------------------|-5h6p5h6p5h6p5h6p5-etc------------------|
                    creepy crawly part

Almost there ...

Sign in to get your own page with links to favourite songs and more. You are just one click away...

Login with Facebook Login with Google