Log in

One click and you are in

Login with Facebook Login with Google

Why sign up and log in

Guitar Tabs Explorer
The Who guitar tabs for Baba oriley (Ver. 2)

Guitar tabs

Baba o'Riley
The Who
Standard Tuning: A chord diagramE MajorE A chord diagramA majorA A chord diagramD MajorD A chord diagramG MajorG A chord diagramBB A chord diagramE MajorE
Keyboard Part (with fast picking)

--------------------------------------------------------------------------------
--------------------------------------------------------------------------------
---------10------------10------------10---------------10--------------10--------
----10-------10----10------10---10--------10-----10-------10------8h10----10----
--8--------------8------------8---------------8----------------8-------------8--
--------------------------------------------------------------------------------

--------------------------------------------------------------------------------
--------------------------------------------------------------------------------
---------10------------10-------------10-------------10-------------------------
---8h10------10----8h10----10-----8h10----10----8h10----10----------------------
-----------------8-------------8--------------8-------------8-------------------
--------------------------------------------------------------------------------


They're all wasted!
--------------------------------------
--------------------------------------
-101010101010101010101010101010101010-
-8-8-8-8-8-8-8-8-8-8-8-8-8-8-8-8-8-8--   Repeat until the end
-8-8-8-8-8-8-8-8-8-8-8-8-8-8-8-8-8-8--
--------------------------------------

That's basically it. It doesn't go in that specific order, but it does change patterns during the song.
When you play along to it it sounds right.
Enjoy!
cwitofur

Other versions of Baba Oriley

Baba orileyChords
Baba orileyTabs
Baba oriley acousticTabs

Almost there ...

Sign in to get your own page with links to favourite songs and more. You are just one click away...

Login with Facebook Login with Google