Log in

One click and you are in

Login with Facebook Login with Google

Why sign up and log in

Guitar Tabs Explorer
The Who guitar tabs for Baba o riley

Guitar tabs

Baba O'Riley (Violin Solo)

By: The Who
from the album: Who's Next (1971)

Tabbed by Stephen Coyle
The notes are pretty much right, but deffo listen to
the record
for timing and the end etc.

Maybe play it with a violin bow?(good luck with that!)




v=vibrato
/=slide

(Violin tabbed for guitar)

Starts at 3:58....

e--------------------5---8vvv-------8----10--6--5------------------------
B--------------6--8--------------------------------8v----6v--------------
G-----5vvv--------------------------------------------------8-7--8-7-5v--
D------------------------------------------------------------------------
A------------------------------------------------------------------------
E------------------------------------------------------------------------


e----------------------------------------------------------------------
B------6---6--8-----------------6---8----------------------------------
G--5-------------8--7-8-7-8-7---------8-7-8-7-5-7-5----------5--5-7-8--
D---------------------------------------------------8-7--7-8-----------
A----------------------------------------------------------------------
E----------------------------------------------------------------------

e------------------------------------------------5-5-6--6/8vvv--
B----6--------------------------------------6--6----------------
G--8---8---7-8---8-7-5---5--353--2--5v----5---------------------
D---------------------------------------------------------------
A---------------------------------------------------------------
E---------------------------------------------------------------


e--8-10-11--10-13-11--10-11---10-11-10-10-----------11--10-11--10-11-10--
B-----------------------------------------13-13-11-----------------------
G------------------------------------------------------------------------
D------------------------------------------------------------------------
A------------------------------------------------------------------------
E------------------------------------------------------------------------

 				---Fast---
e--11--10--11--10-------------10-11-10-11-10----------------------
B-----------------13--13--11------------------13--13--11--11--10--
G-----------------------------------------------------------------
D-----------------------------------------------------------------
A-----------------------------------------------------------------
E-----------------------------------------------------------------

    ---Fast---			     ---Fast---
e--10-11-10-11-10------------------10-11-10-11-10-----------------
B-----------------13-11-11-11-10------------------13-13-11-11-10--
G-----------------------------------------------------------------
D-----------------------------------------------------------------
A-----------------------------------------------------------------
E-----------------------------------------------------------------


e--10/11--11--10-11----------------13--11-10-11-10--10----
B-------------------13-11--11-10-------------------13-13--
G---------------------------------------------------------
D---------------------------------------------------------
A---------------------------------------------------------
E---------------------------------------------------------


e------------------------------------------------------------------------
B--13-11-10-11-10----10--------------------------------------------------
G-----------------12----12-10-12-10-8---10--8-8v--7-8-7--8--7-8v--7-8-7--
D------------------------------------------------------------------------
A------------------------------------------------------------------------
E------------------------------------------------------------------------


e---------5-6-8---------5-6-8--------5-6-8--------5-6-8--
B------6-------------6------------6------------6---------
G--5--------------5------------5------------5------------
D--------------------------------------------------------
A--------------------------------------------------------
E--------------------------------------------------------


e--11-11-11vv---11-11-11--11-11--11-11--11--11-10-11--10-11--10-11-10---
B--------------------------------8--8---8-------------------------------
G-----------------------------------------------------------------------
D-----------------------------------------------------------------------
A-----------------------------------------------------------------------
E-----------------------------------------------------------------------


e--10------------13--13--13--11--10-11-10-10------13--13--13-11v--
B-----13-13-10---10--10--10------------------10---10--10--10------
G-----------------------------------------------------------------
D-----------------------------------------------------------------
A-----------------------------------------------------------------
E-----------------------------------------------------------------


e--10-11--10--------8-8-8-8-8-8-8-8-8-8-8-8-8-8-8-8-8-8-8-8-8-8-8-8-8-8--
B-----------13-10--------------------------------------------------------
G------------------------------------------------------------------------
D------------------------------------------------------------------------
A------------------------------------------------------------------------
E------------------------------------------------------------------------


e--8-8-8-8-8-8-8-8-8-8-8-8-8-8-8-8-8-8-8-8-8-8-8-8-8-8-8-8-8-8-
etc.



Enjoy! Any comments to paulsontour@yahoo.com



__________________________________

Other versions of Baba O Riley

Baba o rileyChords

Almost there ...

Sign in to get your own page with links to favourite songs and more. You are just one click away...

Login with Facebook Login with Google