Log in

One click and you are in

Login with Facebook Login with Google

Why sign up and log in

Guitar Tabs Explorer
The Who bass tabs for Baba o reily

Bass tabs

g---------------------------------------------
d-----3--------3---------3---------3----------
a--------3--1-----3---1-----3---1-----3---1---
e---------------------------------------------
                       13x
g---------------------------------------------
d---------------------------------------------
a---------3--------3--------3--------3--------
e---------------------------------------------

g-----------
d--3-3-3-3-3
a-3-3-3-3-3-
e-----------   gets faster until song
         ends

ⓘ Bass guitar tab for 'Baba O Reily' by The Who, a classic rock band formed in 1964 from London, England. The Who is known for their enlightened rock/pop music.

Almost there ...

Sign in to get your own page with links to favourite songs and more. You are just one click away...

Login with Facebook Login with Google