Log in

One click and you are in

Login with Facebook Login with Google

Why sign up and log in

Guitar Tabs Explorer
The Who bass tabs for Athena

Bass tabs

who-athena.btab


Basstab by Jan Bjorklund, Finland;
jani_bjorklund@yahoo.se
You are welcome to request for basstabs!
Bienvenidos a pedirme transcripciones para el bajo!
Fingering and positions as suggested by TablEdit.
who-athena.btab

TablEdited by Jan Bjorklund

Tuning : E A D G 	Time Signature: 4/4

 |    |    |    |    |    |    |    |
|0---0-----------0---0-----------|0---0-----------0---0-----------|
|------------0---------------0---|------------0-----------0-------|
|--------------------------------|----------------------------1---|
|--------------------------------|--------------------------------|

 |    |    |    |    |    |    |    |
|--------------------------------|--------------------------------|
|------------4---2---2-------1---|0---0-------1---2---------------|
|0---0---------------------------|--------------------2-----------|
|--------------------------------|------------------------4---0---|

 |    |    |    |    |    |    |    |
|--------------------------------|--------------------------------|
|----------------2---2-------1---|0---0-------4---2---2---2-------|
|0---0---------0-----------------|----------------------------2---|
|--------------------------------|--------------------------------|

 |    |    |    |    |    |    |    |
|--------------------------------|--------------------------------|
|------------0---2---2-----------|0---0---------0-2---2---2-------|
|0---0-----------------------2---|----------------------------2---|
|--------------------------------|--------------------------------|

 |    |    |    |    |    |    |    |
|----------------------------1---|--------------------------------|
|------------2---2---2-----------|0---0-------4---2---2---2-------|
|0---0---------------------------|----------------------------2---|
|--------------------------------|--------------------------------|

 |    |    |    |    |    |    |    |
|0---0-------0---0---0-------0---|0---0-----------0---0-----------|
|--------------------------------|------------0-------------------|
|--------------------------------|--------------------------------|
|--------------------------------|----------------------------3---|

 |    |    |    |    |    |    |    |
|--------------------------------|--------------------------------|
|----------------2---2-----------|0---0-------4---2---1-----------|
|0---0---------0-----------------|------------------------4-------|
|------------------------------0-|----------------------------4---|

 |    |    |    |    |    |    |    |
|------------1-------------------|------------2-------------------|
|--------------4-2---2-----------|0---0-----------2---1-----------|
|0---0---------------------------|------------------------4-------|
|------------------------------0-|----------------------------4---|

 |    |    |    |    |    |    |    |
|--------------------------------|--------------------------------|
|------------0---2---2-----------|0---0-------0-1-2---2---2-------|
|0---0-----------------------2---|----------------------------2---|
|--------------------------------|--------------------------------|

 |    |    |    |    |    |    |    |
|--------------------------------|------------------------2---1---|
|------------4---2---2-----------|0---0---------0-2---2-----------|
|0---0---------------------------|--------------------------------|
|------------------------------0-|--------------------------------|

 |    |    |    |    |    |    |    |
|0---0-----------0---0-----------|0---0-----------0---0-----------|
|----------------------------0---|----------------------------0---|
|--------------------------------|--------------------------------|
|------------3---------------3---|------------3---------------3---|

 |    |    |    |    |    |    |    |
|0---0-------0---0---0-------0---|0---0-----------0---0-----------|
|--------------------------------|------------0---------------0---|
|--------------------------------|--------------------------------|
|--------------------------------|--------------------------------|

 |    |    |    |    |    |    |    |
|--------------------------------|--------------------------------|
|2---2-----------2---2-----------|------------2---0---0---0-------|
|----------------------------2---|0---0-----------------------0---|
|------------0---------------0---|--------------------------------|

 |    |    |    |    |    |    |    |
|--------------------------------|--------------------------------|
|2---2-----------0---0-----------|----------------0-------0---4---|
|------------2---------------2---|0---0---------0-----0-----------|
|--------------------------------|--------------------------------|

 |    |    |    |    |    |    |    |
|------------1-------------------|--------------------------------|
|2---2-----------0---0-----------|----------------0-------0---1---|
|----------------------------2---|0---0-------4-------0-----------|
|--------------------------------|--------------------------------|

 |    |    |    |    |    |    |    |
|--------------------------------|--------------------------------|
|2---2-----------0---0---------0-|------------2---0---0-----------|
|------------2-------------------|0---0---------4---------4-------|
|----------------------------2---|----------------------------2---|

 |    |    |    |    |    |    |    |
|--------------------------------|------------2-------------------|
|------------0---2---2-----------|0---0-----------2---2---2-------|
|0---0-----------------------2---|----------------------------2---|
|--------------------------------|--------------------------------|

 |    |    |    |    |    |    |    |
|----------------------------1---|--------------------------------|
|------------0---2---2-----------|0---0-------4---2---2---2-------|
|0---0---------------------------|----------------------------2---|
|--------------------------------|--------------------------------|

 |    |    |    |    |    |    |    |
|--------------------------------|--------------------------------|
|------------2---2---2-----------|0---0-------4---2---2---2-------|
|0---0---------------------------|----------------------------2---|
|------------------------------0-|--------------------------------|

 |    |    |    |    |    |    |    |
|--------------------------------|------------------------2---1---|
|------------2---2---2-------1---|0---0-------4---2---2-----------|
|0---0---------------------------|--------------------------------|
|--------------------------------|--------------------------------|

 |    |    |    |    |    |    |    |
|0---0-----------0---0-------2---|0---0-------0---0---0-------0---|
|------------0-------------------|--------------------------------|
|--------------------------------|--------------------------------|
|--------------------------------|--------------------------------|

 |    |    |    |    |    |    |    |
|0---0-----------0---0-----------|0---0-----------0---0-----------|
|----------------------------0---|------------0-------------------|
|--------------------------------|----------------------------1---|
|------------3---------------3---|--------------------------------|

 |    |    |    |    |    |    |    |
|----------------------------1---|--------------------------------|
|----------------2---2-----------|0---0---------0-2---1-----------|
|0---0---------0-----------------|------------------------4---2---|
|--------------------------------|--------------------------------|

 |    |    |    |    |    |    |    |
|--------------------------------|--------------------------------|
|------------2---2---2-----------|0---0-------1---2---2---2-------|
|0---0---------------------------|----------------------------2---|
|------------------------------0-|--------------------------------|

 |    |    |    |    |    |    |    |
|------------1-------------------|--------------------------------|
|--------------4-2---2-----------|0---0-------4---2---1-----------|
|0---0-----------------------2---|------------------------4-------|
|--------------------------------|----------------------------4---|

 |    |    |    |    |    |    |    |
|--------------------------------|--------------------------------|
|------------0---2---2-----------|0---0-------1---2---2---2-------|
|0---0---------------------------|----------------------------2---|
|------------------------------0-|--------------------------------|

 |    |    |    |    |    |    |    |
|0---0-----------0---0-----------|0---0-------0---0---0---0-------|
|------------0---------------0---|----------------------------0---|
|--------------------------------|--------------------------------|
|--------------------------------|--------------------------------|

 |    |    |    |    |    |    |    |
|0---0-----------0---0-----------|----------------4---5---6---7---|
|------------0---------------0---|5---5---------------------------|
|--------------------------------|------------5-------------------|
|--------------------------------|--------------------------------|

 |    |    |    |    |    |    |    |
|--------------------------------|--------------------------------|
|2---2-----------0---0-----------|------------2---0---0---0-------|
|----------------------------4-2-|0---0-----------------------0---|
|--------------0-----------------|--------------------------------|

 |    |    |    |    |    |    |    |
|--------------------------------|--------------------------------|
|2---2-----------0---0-----------|----------------0-------0---4---|
|------------2---------------0---|0---0-------4-------0-----------|
|--------------------------------|--------------------------------|

 |    |    |    |    |    |    |    |
|--------------------------------|--------------------2---0-------|
|2---2-----------0---0---------0-|----------------0-----------4---|
|--------------------------------|0---0---------0-----------------|
|--------------0-------------2---|--------------------------------|

 |    |    |    |    |    |    |    |
|------------1-------------------|--------------------------------|
|2---2-----------0---0-----------|------------2---0-------0---1---|
|----------------------------2---|0---0---------------0-----------|
|--------------------------------|--------------------------------|

 |    |    |    |    |    |    |    |
|--------------1-----------------|--------------------------------|
|2---2-------2---0---0-----------|----------------0---0---0-------|
|----------------------------0---|0---0---------0-------------0---|
|--------------------------------|--------------------------------|

 |    |    |    |    |    |    |    |
|--------------------------------|--------------------0---1---2---|
|0---0-------0---0---0-------0---|0---0-----------4---------------|
|----------------------------0---|------------0-------------------|
|--------------------------------|--------------------------------|

 |    |    |    |    |    |    |    |
|----------------------------2---|--------------1-----------------|
|0---0---------0-0---0-----------|0---0-------0---0---0---0-------|
|--------------------------------|----------------------------0---|
|--------------------------------|--------------------------------|

 |    |    |    |    |    |    |    |
|--------------------------------|--------------------------------|
|0---0-------1---0---0-------0-1-|0---0-----------0---0---0-------|
|--------------------------------|------------2---------------0---|
|--------------------------------|--------------------------------|

 |    |    |    |    |    |    |    |
|--------------------------------|------------1-------2---0-------|
|0---0-------1---0---0-------1---|0---0-----------0-----------4---|
|--------------------------------|--------------------------------|
|--------------------------------|--------------------------------|

 |    |    |    |    |    |    |    |
|--------------1-----------------|--------------------------------|
|0---0-------0---0---0-----------|------------0---2---2-------2-1-|
|----------------------------4-2-|0---0---------------------------|
|--------------------------------|--------------------------------|

 |    |    |    |    |    |    |    |
|--------------------------------|--------------------------------|
|0---0-------0-1-2---2---2-------|------------0---2---2-----------|
|----------------------------2---|0---0-----------------------2---|
|--------------------------------|--------------------------------|

 |    |    |    |    |    |    |    |
|--------------------------------|--------------------------------|
|0---0-------1---2---2---2-------|------------2---2---2-------1---|
|----------------------------2---|0---0---------------------------|
|--------------------------------|--------------------------------|

 |    |    |    |    |    |    |    |
|--------------------------------|--------------------------------|
|0---0-------4---2---1-----------|------------0---2---2-----------|
|------------------------4---2---|0---0---------------------------|
|--------------------------------|------------------------------0-|

 |    |    |    |    |    |    |    |
|------------2-------------------|0---0-----------0---0-----------|
|0---0-----------2---2---2-------|------------0---------------0---|
|----------------------------2---|--------------------------------|
|--------------------------------|--------------------------------|

 |    |    |    |    |    |    |    |
|0---0-----------0---0-----------|0---0-----------0---0-----------|
|------------0---------------0---|----------------------------0---|
|--------------------------------|--------------------------------|
|--------------------------------|------------3---------------3---|

 |    |    |    |    |    |    |    |
|0---0-----------0---0-----------|0---0-----------0---0-------2---|
|------------0---------------0---|------------0-------------------|
|--------------------------------|--------------------------------|
|--------------------------------|--------------------------------|

 |    |    |    |    |    |    |    |
|0---0-------0---0---0-------0---|--------------------------------|
|--------------------------------|------------2---2---2-------1---|
|--------------------------------|0---0---------------------------|
|--------------------------------|--------------------------------|

 |    |    |    |    |    |    |    |
|--------------------------------|----------------------------1---|
|0---0-------4---2---1-----------|------------4---2---2-----------|
|------------------------4-------|0---0---------------------------|
|----------------------------4---|--------------------------------|

 |    |    |    |    |    |    |    |
|------------2-------------------|--------------------------------|
|0---0-----------2---1-----------|--------------0-2---2-------2-1-|
|------------------------4---2---|0---0-------4-------------------|
|--------------------------------|--------------------------------|

 |    |    |    |    |    |    |    |
|------------2-------------------|----------------------------1---|
|0---0-----------2---2---2-------|------------0---2---2-----------|
|----------------------------2---|0---0---------------------------|
|--------------------------------|--------------------------------|

 |    |    |    |    |    |    |    |
|--------------------------------|0---0-----------0---0-------2---|
|0---0-------1---2---2---2-------|------------0-------------------|
|----------------------------2---|--------------------------------|
|--------------------------------|--------------------------------|

 |    |    |    |    |    |    |    |
|0---0-----------0---0-----------|0---0-----------0---0-----------|
|------------0---------------4---|------------0-------------------|
|--------------------------------|----------------------------1---|
|--------------------------------|--------------------------------|

 |    |    |    |    |    |    |    |
|0---0-----------0---0-----------|0-------------------------------|
|------------0-------------------|--------------------------------|
|----------------------------1---|--------------------------------|
|--------------------------------|--------------------------------|

Almost there ...

Sign in to get your own page with links to favourite songs and more. You are just one click away...

Login with Facebook Login with Google