Log in

One click and you are in

Login with Facebook Login with Google

Why sign up and log in

Guitar Tabs Explorer
The Who bass tabs for Anytime you want me

Bass tabs with lyrics

The Who
Written by Norman Meade and Garnet Mimms; released as a B-side to "Anyway
Anyhow Anywhere"

6/8 time
Intro:
G|----------- -----------|----------- -----------|----------- -----------|
D|-----------------------|-----------------------|-----------------------|
A|------------0---2---4--|5-----------5----------|5---------------4---3--|
E|-----------------------|--------------------5--|-----------------------|


G|----------- -----------|----------- -----------|----------- -----------|
D|-----------------------|-----------------------|-----------------------|
A|2-------------------1--|0---0---0---0---0---0--|0---0---0---0---2---4--|
E|-----------------------|-----------------------|-----------------------|

             (anytime,  anytime,  anytime,  anytime  you

G|----------- -----------|----------- -----------|----------- -----------|
D|-----------------------|-----------------------|-----------------------|
A|5----------------------|5-----------5---4---3--|2-------------------1--|
E|--------------------5--|-----------------------|-----------------------|
       Come on   back,                come on
 want me)

G|----------- -----------|----------- -----------|
D|-----------------------|-----------------------|
A|0---0---0---0---0---0--|0---0---0---0---2---4--|
E|-----------------------|-----------------------|
 home!

Verse:
G|----------- -----------|----------- -----------|----------- -----------|
D|-----------------------|-----------------------|-----------------------|
A|5----------------------|5-----------5---4---3--|2----------------------|
E|--------------------5--|-----------------------|--------------------2--|
       Ran away and left me            alone   in this
                   oooooooooooooooooooooooo

G|----------- -----------|----------- -----------|----------- -----------|
D|-----------------------|-----------------------|--------------------4--|
A|2-----------2---3---4--|5----------------------|5-----------5---7------|
E|-----------------------|--------------------5--|-----------------------|
 empty place,            Anywhere I go,
       oooooooooooooooooooooooo

G|----------- -----------|----------- -----------|----------- -----------|
D|4----------------------|4-------------------4--|5-----------5-------5--|
A|--------------------4--|-----------------------|-----------------------|
E|-----------------------|-----------------------|-----------------------|
       all see your sweet face. Though my pain      keeps on
         I  is              ooooooooooooooooooooooo

G|----------- -----------|4---------- 4----------|----------- -----------|
D|7-----------7-------7--|-----------------------|5-------------------5--|
A|-----------------------|-----------------------|-----------------------|
E|-----------------------|-----------------------|-----------------------|
 growing,  there's one thing, baby you should be knowing.
 oooooooooooo      ooooooooooooooooooooooooooooooooo (anytime  you

Refrain:
G|----------- -----------|----------- -----------|----------- -----------|
D|-----------------------|-----------------------|-----------------------|
A|5----------------------|5---------------4---3--|2----------------------|
E|--------------------5--|-----------------------|--------------------2--|
       Come on   back,                come on
 want me,              anytime you want me,

G|----------- -----------|----------- -----------|----------- -----------|
D|-----------------------|5-----------5----------|5-----------5----------|
A|2----------------------|--------------------5--|-----------------------|
E|-----------------------|-----------------------|-----------------------|
 back,                Come on   back,    oh,
       anytime you want me)

G|2---2---2-- 2---2---2--|2---2---2-- 2----------|
D|-----------------------|-----------------------|
A|-----------------------|----------------2---4--|
E|-----------------------|-----------------------|
 yeah!


Verse:
G|----------- -----------|----------- -----------|----------- -----------|
D|-----------------------|-----------------------|-----------------------|
A|5----------------------|5---------------4---3--|2----------------------|
E|--------------------5--|-----------------------|--------------------2--|
       Tried make happy,             very  best I
         to  you       oooooooooooooooooooooooo

G|----------- -----------|----------- -----------|----------- -----------|
D|-----------------------|-----------------------|--------------------4--|
A|2---------------3---4--|5----------------------|5-----------5---7------|
E|-----------------------|--------------------5--|-----------------------|
 could,               Anyting you wanted,   whoa,
       oooooooooooooooooooooooo

G|----------- -----------|----------- -----------|----------- -----------|
D|4----------------------|4-----------4-------4--|5-------------------5--|
A|--------------------4--|-----------------------|-----------------------|
E|-----------------------|-----------------------|-----------------------|
 whoa, just like good  should.     E - ven though   you did me
         a  man             ooooooooooooooooooooooo

G|----------- -----------|4---------- 4----------|----------- -----------|
D|7---------------7---7--|-----------------------|5-----------5----------|
A|-----------------------|-----------------------|-----------------------|
E|-----------------------|-----------------------|-----------------------|
 wrong,     I'll be waiting, no matter how long.
 oooooooooooo      ooooooooooooooooooooooooooooooooo (anytime  you

Refrain:
G|----------- -----------|----------- -----------|----------- -----------|
D|-----------------------|-----------------------|-----------------------|
A|5----------------------|5---------------4---3--|2----------------------|
E|--------------------5--|-----------------------|--------------------2--|
       I'll  be here,               I promise I'll be
 want me,              anytime you want me,

G|----------- -----------|----------- -----------|----------- -----------|
D|-----------------------|5----------------------|5-----------5----------|
A|2----------------------|--------------------5--|-----------------------|
E|-----------------------|-----------------------|-----------------------|
 here, baby,           I'll be by your side,    oh,
       anytime you want me)

G|----------- -----------|----------- -----------|
D|7---7---7---7---7---7--|7---7---7---7---7---6--|
A|-----------------------|-----------------------|
E|-----------------------|-----------------------|
 yeah!


Bridge:
G|----------- -----------|----------- -----------|4---------- --------4--|
D|5-------------------5--|7-----------7----------|-----------------------|
A|-----------------------|-----------------------|-----------------------|
E|-----------------------|-----------------------|-----------------------|
       Said I'll forgive you      for everything   in the past,


G|4---------- -----------|----------- -----------|----------- -----------|
D|----------------7---7--|5----------------------|5---------------5---5--|
A|-----------------------|--------------------5--|-----------------------|
E|-----------------------|-----------------------|-----------------------|
               All I  need  is one more chance,  I know,


G|----------- -----------|----------- -----------|
D|-----------------------|-----------------------|
A|0---0---0---0---0---0--|0---0---0---0---2---4--|
E|-----------------------|-----------------------|
     I  know it will last.


Verse:
G|----------- -----------|----------- -----------|----------- -----------|
D|-----------------------|-----------------------|-----------------------|
A|5----------------------|5-----------5---4---3--|2----------------------|
E|--------------------5--|-----------------------|--------------------2--|
       Now heard my story,          know just what's on my
        you've        oooooooooooooooooooooooo

G|----------- -----------|----------- -----------|----------- -----------|
D|-----------------------|-----------------------|--------------------4--|
A|2-----------2---3---4--|5----------------------|5-----------5---7------|
E|-----------------------|--------------------5--|-----------------------|
 mind,                Tired of being lonely, whoa,
       oooooooooooooooooooooooo

G|----------- -----------|----------- -----------|----------- -----------|
D|4----------------------|4-----------4---4---3--|5-------------------5--|
A|--------------------4--|-----------------------|-----------------------|
E|-----------------------|-----------------------|-----------------------|
 whoa, I've had share of crying     Without you    I can't go
         my               ooooooooooooooooooooooo

G|----------- -----------|4---------- 4-------4--|----------- -----------|
D|7-------------------7--|-----------------------|5-----------5-------7--|
A|-----------------------|-----------------------|-----------------------|
E|-----------------------|-----------------------|-----------------------|
 on,       I'll be waiting, no matter how long.
 oooooooooooo      ooooooooooooooooooooooooooooooooo (anytime  you

Refrain:
G|----------- -----------|----------- -----------|----------- -----------|
D|-----------------------|-----------------------|-----------------------|
A|5----------------------|5-----------5---4---3--|2----------------------|
E|--------------------5--|-----------------------|--------------------2--|
       Anytime you want me,              anytime you
 want me,              anytime you want me,

G|----------- -----------|----------- -----------|----------- -----------|
D|-----------------------|5-----------5----------|5-----------5---5---5--|
A|2-----------2----------|--------------------5--|-----------------------|
E|-----------------------|-----------------------|-----------------------|
 need me,              Anytime you want me now,
       anytime you want me)

G|----------- -----------|----------- -----------|----------- -----------|
D|7---7---7---7---7---7--|5---5---5---5---5---5--|-----------------------|
A|-----------------------|-----------------------|5---5---5---5----------|
E|-----------------------|-----------------------|----------------5---5--|
 oh,     oh,     oh,     anytime you want me.


G|----------- -----------|----------- -----------|----------- -----------|
D|-----------------------|-----------------------|-----------------------|
A|5----------------------|-----------------------|-----------------------|
E|-----------------------|-----------------------|-----------------------|

Almost there ...

Sign in to get your own page with links to favourite songs and more. You are just one click away...

Login with Facebook Login with Google