Log in

One click and you are in

Login with Facebook Login with Google

Why sign up and log in

Guitar Tabs Explorer
The White Stripes bass tabs for You dont know what love is you just do as youre told

You Don't Know What Love Is You Just Do As You're Told bass tab - The White Stripes

The White Stripes bass tabs for You dont know what love is you just do as youre told

Bass tabs

You Don't Know What Love Is (You Just Do as You're Told)
by The White Stripes
Tabbed by Pat Murphy
EADG

G-----------------------------| |----------------------------|
D--7----------------------7-7-| |--7-------------------------|
A---------7-7------5----------|x3|---------7-7------5---------|
E-----------------------------| |-------------------------5--|
Verse
G-------------------------------------------------------------------------|
D--7----------------------7-7------7-------------------------------7------|
A---------7-7------5----------------------7-7------5------7-7-------------|
E-------------------------------------------------------------------------|
             Pre-Chorus
-----------------------|--------------------------|
------------------7~~--|-7--------------------7~--|
-7-7------5-5----------|--------7------5----------|
--------------5-5------|--------------------------|

Chourus is playes the same as the verse

After Chorus
G---------------------------|-----------------------------|
D---------------------------|--7----------------------7-7-|
A---------------------------|---------7-7------5----------|x3
E--5~~~~///10~~~~~~~~-------|-----------------------------|

G----------------------------|
D--7-------------------------|
A---------7-7------5---------|
E-------------------------5--|

Bridge
G-------------------------------------------------------| |----------------|
A-------------------------------------------------------| |----------------|
D-----------------------------7--7--7---3--3--3---------|x2|----------------|
E-0--0--0---3--3--3---5---5-----------------------5---5-| |-0--0--0---3--3-|

----------------------------------------------------------------------------|
----------------------------------------------------------------------------|
-------------7--7--7---3--3--3----------------------------------------------|
-3---5---5-----------------------5--5--5---0--0--0---0--0--0---3--3--3---5--|

-------------------------------|
-------------------------------|
-----7--7--7---3--3--3---------|
-5-----------------------5---5-|


Verse x 1

Pre-Chorus x 1

Chorus x 1

After Chorus
G---------------------------|
D---------------------------|
A---------------------------|x3
E--5~~~~///10~~~~~~~~-------|


Solo
G-----------------------------| |----------------------------|
D--7----------------------7-7-| |--7-------------------------|
A---------7-7------5----------|x5|---------7-7------5---------|
E-----------------------------| |-------------------------5--|

Almost there ...

Sign in to get your own page with links to favourite songs and more. You are just one click away...

Login with Facebook Login with Google