Log in

One click and you are in

Login with Facebook Login with Google

Why sign up and log in

Guitar Tabs Explorer
The White Stripes bass tabs for Why cant you be nicer to me

Why Can't You Be Nicer To Me bass tab - The White Stripes

The White Stripes bass tabs for Why cant you be nicer to me

Bass tabs

The White Stripes - Why Can't you be Nicer to Me


Intro/Riff
|-----------------------------------|
|-----------------------------------|
|------12b-----12b-----12b----------|
|--9-9-----9-9-----9-9-----9-7-9-7--|


Break
|--------12-12-10p0-3-0--|
|------------------------|
|------------------------|
|--9-9-9-----------------|


Ending
|-----------------------------------|
|--0-0--0-0--0-0--0-0--0-0--0-0-----|
|-----------------------------------|

Almost there ...

Sign in to get your own page with links to favourite songs and more. You are just one click away...

Login with Facebook Login with Google