Guitar Tabs Explorer
The White Stripes guitar tabs for Seven nation army

Seven Nation Army tab


3.9 / 5 [7 votes]

Seven Nation Army tab by The White Stripes

The 2003 White Stripes hit consist of one underlying guitar riff which is played from the start all the way to the end. You will find this riff in the Seven nation army guitar tabs here. It reached the top spot on Billboards Hot Modern Rock Tracks list and the band got a Grammy for the song.

It sounds like a bass guitar, but as the band never had a bassist they used several methods to get the bass sound from Jack Whites guitar. A DigiTech Whammy pedal was set down one octave to get he bass feeling but you may use whatever you like to alter the sound. Some bands even use a bassist when then play the song. The riff has been famous after it has been used on several sport stadiums as an anthem.

Guitar tabs

Print
Band: The White Stripes
Album: Elephant
Guitarist: Jack White

x = palm muted

***Verse
|-------------------------||
|-------------------------||
|-------------------------||
|-------------------------||
|--7---7/10--7--5--3---2--||
|-------------------------||
   x   x     x  x  x   x


***Interlude
|--------------------0-0-0-0-0-0-0-0-0--||
|--------------------0-0-0-0-0-0-0-0-0--||
|--------------------0-0-0-0-0-0-0-0-0--||
|--5-5-5-5-5-5-5-5----------------------||
|--5-5-5-5-5-5-5-5----------------------||
|--3-3-3-3-3-3-3-3----------------------||



***Chorus (w/ slide)
|------------------------------------------------------||
|------------------------------------------------------||
|------------------------------------------------------||
|--7---7/10--7--5--3--2----7---7/10--7--5--3/5--3--2---||
|--7---7/10--7--5--3--2----7---7/10--7--5--3/5--3--2---||
|--7---7/10--7--5--3--2----7---7/10--7--5--3/5--3--2---||


***Solo (w/ slide)
|----------------------------------------------------||
|----------------------------------------------------||
|--10-10-13-10-10--------10-10-13-10-10-13-15-13-12--||
|-----------------12-11------------------------------||
|----------------------------------------------------||
|----------------------------------------------------||

|--13-13--15--13-13--18-16---13-13--15--13-13-16-18-16-15--||
|----------------------------------------------------------||
|----------------------------------------------------------||
|----------------------------------------------------------||
|----------------------------------------------------------||
|----------------------------------------------------------||

Other versions of Seven Nation Army

- Seven nation armyChords
- Seven nation army (Ver. 2)Chords
- Seven nation army acousticChords
- Seven nation army ukuleleChords
- Seven nation army (Ver. 2)Tabs
- Seven nation army (Ver. 3)Tabs
- Seven nation army - introTabs
- Seven nation army lead guitarTabs
- Seven nation army soloTabs

Comment this song and these guitar tabs

Do you have corrections, comments on the guitar tabs, thoughts about the song or a message to the author? Write them below.