Log in

One click and you are in

Login with Facebook Login with Google

Why sign up and log in

Guitar Tabs Explorer
The White Stripes bass tabs for Lets build a home

Lets Build A Home bass tab by The White Stripes

The White Stripes bass tabs for Lets build a home

Bass tabs

If there was a Bass part to this song, this is how it goes...

Common Time


Intro-Guitar Plays 4 measures and then come in with drums

G-|-------------|-------------| x3
D-|-------------|-------------|
A-|-------------|-------------|
D-|-0--3--0--3--|-0--3--0--3--|

G-|-------------|-------------|-------------|------------|
D-|-------------|-------------|-------------|------------|
A-|-------------|-------------|-------------|------------|
D-|-5-55-55-55--|-55-55-55-55-|-0--3--0--3--|-0--3--0--3-|

Then...

G-|-------------|-------------|-------------|-------------|
D-|-------------|-------------|-------------|-------------|
A-|-------------|-------------|-------------|-------------|
D-|-7-77-77-RR--|-77-77-77-RR-|-77-77-77-RR-|-77-77-77-RR-|

Back to main riff

G-|-------------|-------------| x4
D-|-------------|-------------|
A-|-------------|-------------|
D-|-0--3--0--3--|-0--3--0--3--|

G-|-------------|-------------|-------------|------------|
D-|-------------|-------------|-------------|------------|
A-|-------------|-------------|-------------|------------|
D-|-5-55-55-55--|-55-55-55-55-|-0--3--0--3--|-0--3--0--3-|

G-|-------------|-------------|-------------|-------------|
D-|-------------|-------------|-------------|-------------|
A-|-------------|-------------|-------------|-------------|
D-|-7-77-77-RR--|-77-77-77-RR-|-77-77-77-RR-|-77-77-77-RR-|

Then Guitar plays small solo for 4 measures, bass rests for all 4 measures and then...

G-|-------------|-------------| x2
D-|-------------|-------------|
A-|-------------|-------------|
D-|-0--3--0--3--|-0--3--0--3--|

Then another samll solo for 4 measure, again bass rest for all 4 and then..

G-|-------------|-------------| x4
D-|-------------|-------------|
A-|-------------|-------------|
D-|-0--3--0--3--|-0--3--0--3--|
                NOTICE THE RESTS THIS TIME HERE
G-|-------------|-------------|-------------|------------|
D-|-------------|-------------|-------------|------------|
A-|-------------|-------------|-------------|------------|
D-|-5-55-55-55--|-55-55-55-55-|-R--R--R--R--|-R--R--R--R-|

G-|-------------|-------------|-------------|-------------|
D-|-------------|-------------|-------------|-------------|
A-|-------------|-------------|-------------|-------------|
D-|-7-77-77-RR--|-77-77-77-RR-|-77-77-77-RR-|-77-77-77-RR-|

G-|-------------|
D-|-------------|
A-|-------------|    END
D-|-0-----------|

Dont let ring

-----------|
Key--R=Rest|
-----------|

This is the best i can do, this one is accurate

ⓘ Bass guitar tab for 'Lets Build A Home' by The White Stripes, a rock band formed in 1997 from Detroit, Michigan, USA. They retired in 2011. The White Stripes was known for their rousing rock/pop music.

Almost there ...

Sign in to get your own page with links to favourite songs and more. You are just one click away...

Login with Facebook Login with Google