Log in

One click and you are in

Login with Facebook Login with Google

Why sign up and log in

Guitar Tabs Explorer
The White Stripes bass tabs for Denial twist

Bass tabs

The White Stripes
“The Denial Twist”
Get Behind Me Satan
Tabbed By Stoyo1
Standard Tuning

There is no bass in this song. Jack White uses an octave effect to get the lower notes.
if desired it can be played on the bass like this.
Intro (0:01)
|--------------|-------------|
|---1----------|---1---------|
|3-----1---3---|3-----1------|
|--------------|-------------|


Verse (0:11)
|----------------|-----------------|
|---1------------|---1-------------|
|3-----1---3-331-|3------1---3-331-|
|----------------|-----------------|


Prechorus (0:22)
|----------------|
|1-------1-------|
|--1-3-----1-3---|
|----------------|


Verse (0:27)
|----------------|-----------------|
|---1------------|--1--------------|x2
|3-----1---3-3-1-|3------1---3-3-1-|
|----------------|-----------------|

Prechorus (0:48)
|----------------|
|1-------1-------|
|--1-3-----1-3---|
|----------------|


Chorus (0:53)
|-------------3------3-3--|----------------------------------|
|5-----5-5----------------|-5---5p3p0-55--5-5p3p0-5p3p0-5-3p0|
|--------------—-1--------|----------------------------------|
|---3---------------------|---3------------------------------|

|-------------3------3-3--|----------------------|
|5-----5-5----------------|-5-3------------------|
|--------------—-1--------|-----5-3-5-3b-5b-3h5p0|
|---3---------------------|----------------------|


Verse (1:14)
|--------------|-------------|
|---1----------|---1---------|
|3-----1---3---|3-----1------|
|--------------|-------------|


Verse(1:25)
|----------------|-----------------|
|---1------------|---1-------------|
|3-----1---3-331-|3------1---3-331-|
|----------------|-----------------|


Prechorus (1:36)
|----------------|
|1-------1-------|
|--1-3-----1-3---|
|----------------|


Chorus (1:41)
|-------------3------3-3--|--------------------|
|5-----5-5----------------|-5-------5-----5-3p0|
|--------------—-1--------|--------------------|
|---3---------------------|---3/-------3/------|

|-------------3------3-3--|---------3-5-33-5b|
|5-----5-5----------------|-----3-5----------|
|--------------—-1--------|-3-5--------------|
|---3---------------------|------------------|


Verse (2:02)
|----------------|-----------------|
|---1------------|--1--------------|x2
|3-----1---3-3-1-|3------1---3-3-1-|
|----------------|-----------------|


Outro (2:23)
|----------------|
|1-------1-------|
|--1-3-----1-3---|
|----------------|

Rest

Almost there ...

Sign in to get your own page with links to favourite songs and more. You are just one click away...

Login with Facebook Login with Google