Log in

One click and you are in

Login with Facebook Login with Google

Why sign up and log in

Guitar Tabs Explorer
The White Stripes bass tabs for Cannon

Bass tabs

Main Riff (enter with the drums)
G|-------------------------------------|
D|-------------------------------------|
A|------7------------------------------|
E|-0--------7---7---6--6--6--6---5--3--|

G|------------------------------|
D|------------------------------|
A|------------------------------|
E|--0--3--0--3--0--3--0--3--0---|

During the bluesy bridge
		X4	  x1
G|--------------|----------|
D|--------------|----------|
A|--------------|----------|
E|--0--0--0--0--|--3-3-1-1-|

Almost there ...

Sign in to get your own page with links to favourite songs and more. You are just one click away...

Login with Facebook Login with Google