Log in

One click and you are in

Login with Facebook Login with Google

Why sign up and log in

Guitar Tabs Explorer
The White Stripes tabs for Baby brother

Guitar tabs with lyrics

Album: Icky Thump Single

Tabbed by: Julian Habenicht
EMail: letszapago@gmail.com
Note: I won't bother tabbing all the chord timings, so go ahead and listen to the
song ;)....thanks!

b    bend less than a half step
n.c. no chords played
p.m. palm muting
T    Tremolo picking


Intro

e---------12b-12b---------12b-12b--|
B---------11b-11b---------11b-11b--|
G--12-12-----------12-12-----------|
D--11-11-----------11-11-----------|
A----------------------------------|
E----------------------------------|

Hey!

A chord diagramG5G5


Verse 1  P.m. (mainly the whole song is played with a slight palm muting)
A chord diagramG5G5
My little baby brother used to play down on the floor
A chord diagramG5G5
But now he's not satisfied to do it anymore
A chord diagramC5C5
He's got a funny habit and I don't know why
A chord diagramG5G5 n.c.
He walks around the ceiling now, stepping on the flies


Chorus p.m.
A chord diagramC5C5                A chord diagramG5G5
Baby brother, baby brother
           A chord diagramC5C5
Well he learned to crawl
          A chord diagramD5D5
On the kitchen wall
         A chord diagramG5G5
Baby brother


Verse 2 p.m.
A chord diagramG5G5
Well just the other day, well-a bless-a my soul
A chord diagramG5G5
I found him swimming round in the goldfish bowl
A chord diagramC5C5
Since nobody told him that he hadn't oughta
A chord diagramG5G5 n.c.
He swam around for hours, with his head underwater


Chorus p.m.
A chord diagramC5C5                A chord diagramG5G5
Baby brother, baby brother
          A chord diagramC5C5 no p.m.
Well you may swim all you wish
    A chord diagramD5D5 no p.m.
But don't eat the fish
        A chord diagramG5G5 no p.m.
Baby brother


Break

Note: The whole break is played one octave up (whammy pedal)

e--3-3-3-3---------3-3-3-3-------4-----5-----6-----7------8---9---|
B-----------------------------------------------------------------|
G----------0-0-0-0---------0-0-0---0-0---0-0---0-0---0-0----0---0-|
D-----------------------------------------------------------------|
A-----------------------------------------------------------------|
E-----------------------------------------------------------------|

            T-------------|
e--10b-10b--10b-10b-10b-10b--15b16-15b16-15b16-15b17-15b17-|
B----------------------------------------------------------|
G----------------------------------------------------------|
D----------------------------------------------------------|
A----------------------------------------------------------|
E----------------------------------------------------------|

e-------------------------------------------------------------------|
B--13-13-13-13-11-13--11-11-12-12-12--------------------------------|
G------------------------------------12--12-12-0--------------------|
D------------------------------------------------12-12-12-12--12-12-|
A-------------------------------------------------------------------|
E-------------------------------------------------------------------|

e----------------|
B----------------|
G--10-10-10-10b--|
D-----------12b--|
A----------------|
E----------------|

A chord diagramG5G5 Yeah!

A chord diagramG5G5 n.c. Yeah  A chord diagramG5G5 n.c Ah Yeah A chord diagramG5G5 n.c. Ohh  A chord diagramG5G5 n.c. Ahh A chord diagramG5G5 n.c.


Verse 3
n.c.
Well, my little baby brother, he's a cute little cuss
n.c.
But it's plain to see that he's not one of us
A chord diagramC5C5 n.c.
Where did we get him? I know you're gonna ask it
A chord diagramG5G5 n.c.
We found him on the porch in a crazy little basket


Chorus  no palm muting
A chord diagramC5C5                 A chord diagramG5G5
Baby brother, baby brother
                A chord diagramC5C5
Although your hair is blue
             A chord diagramD5D5
We think the world of you
        A chord diagramG5G5
Baby brother


Verse 4
         A chord diagramG5G5 n.c.
Well, I bought my baby brother a toy balloon
A chord diagramG5G5 n.c.
He let it get away and it floated toward the moon
A chord diagramC5C5 n.c.
Instead of crying he climbed up on the fence
A chord diagramG5G5 n.c.
Started flapping his arms and we ain't seen him since


Chorus
A chord diagramC5C5                  A chord diagramG5G5
Baby brother, baby brother
               A chord diagramC5C5 p.m.
Although he's out in outer space
         A chord diagramD5D5 p.m.
I can still see his face
         A chord diagramG5G5 p.m.
Baby brother

                A chord diagramC5C5 p.m
Although you're out in outer space
          A chord diagramD5D5 p.m.
I can still see your face
         A chord diagramG5G5 p.m.
Baby brother

A chord diagramG5G5                n.c.
Although you're out in outer space
n.c.
I can still see your face
n.c.
Baby brother

e-------|
B-------|
G-------|
D-------|
A-------|
E--3b4--|

A chord diagramG5G5   A chord diagramG5G5 n.c.

Almost there ...

Sign in to get your own page with links to favourite songs and more. You are just one click away...

Login with Facebook Login with Google