Log in

One click and you are in

Login with Facebook Login with Google

Why sign up and log in

Guitar Tabs Explorer
The White Stripes tabs for A boys best friend

Guitar tabs

Use a slide for the whole song but dont slide notes unless marked with a / or \
		Main Riff:
E------------------------------------------- --------------------------------
B-------3------3-----------------------3---- ----3-------3-------------------
G----------------------------------------x7- -----------------------------x1
D------------------2/-4--4/-6--6/-2--------- ---------------2/-4--4/-6--6/-4-
A----2------2------2/-4--4/-6--6/-2--------- -2------2------2/-4--4/-6--6/-4-
E------------------------------------------- --------------------------------
            Chorus:
E-------------------------------
B-------------------------------
G-------------------------------
D---4--4--4--4/-6--6--6--6/-8-8-
A---4--4--4---/-6--6--6---/-8-8-(slide from here down back to main riff)
E-------------------------------


Main Riff

Chorus

Main Riff

Chorus

Solo(I haven't done the solo yet but when i get it i'll post it)

Main Riff

Chorus

I might add that i am 13 yrs old and have only been playing for a month and this
is the 1st song i've ever tabbed so if it sucks blame it on those 3 factors.  If
you have love or hate to send

Almost there ...

Sign in to get your own page with links to favourite songs and more. You are just one click away...

Login with Facebook Login with Google