Log in

One click and you are in

Login with Facebook Login with Google

Why sign up and log in

Guitar Tabs Explorer
White Denim bass tabs for Shake shake shake

Bass tabs

WHITE DENIM, ONE OF THE BEST BANDS OUT THERE

This is my first tab im quite bad at tabbing so i thought id give it a shot and since
had this tabbed out i just thought id give it a try
Intro: 0:00 - 0:22

G|----------------------------------|
D|----------------------------------|
A|----------------------------------|
E|-----2-22-22-22-22-22-22-22-22-22-|


Riff 1: 0:22 - 0:42

G|----------------------------------------------------|
D|----------------------------------------------------|
A|-----0-0-0-0-0-2-------------0-0-0-0-0-0-2----------|
E|-----------------2-2-2-2-2-2--------------2-2-2-2-2-|

Rest:  0:42 - 0:50


Riff 2: 0:50 - 1:15


G|---------------------------------------------------|
D|---------------------------------------------------|
A|-------------------------9\------------------------|
E|---------5-5-5---7-7-7-------2---------------------|


Riff 3: 1:15 - 1:50

G|------------------------------------------------------|
D|-----4-4--X-------------------------------------------|
A|----------X-------------------------------------------|
E|----------X-2-2-2-------------------------------------|

Repeat Intro: 1:50 2:32

So what you say dummies?

Get the f*ck outa my face son.

Almost there ...

Sign in to get your own page with links to favourite songs and more. You are just one click away...

Login with Facebook Login with Google