Search tabs and chords

Search for song, artist or band

Log in

One click and you are in

Login with Facebook Login with Google

Why sign up and log in

Guitar Tabs Explorer
While She Sleeps guitar tabs for Inspire

Guitar tabs with lyrics

While She Sleeps - INSPIRE
Album: So What?

Tuning: Drop C chord diagramCC

Intro
D|-------------------------------------|
A|-------------------------------------|
F| chord diagramF|F|-------------------------------------|
C| chord diagramC|C|--0---0---0---0-0-0-7--8-8-8--3-3-5--|
G|--0---0---0---0-0-0-7--8-8-8--3-3-5--|
C| chord diagramC|C|--0---0---0---0-0-0-7--8-8-8--3-3-5--|

D|-------------------------------------|
A|-------------------------------------|
F| chord diagramF|F|-------------------------------------|
C| chord diagramC|C|--0---0---0---0-0-0-7--8-8-----------|
G|--0---0---0---0-0-0-7--8-8-----------|
C| chord diagramC|C|--0---0---0---0-0-0-7--8-8-10-10-5-7-| They play these two twice


verse 1
I'm not sure if this is played on a guitar. But here it is anyway.
D|-----------------------------------|-----------------------------------|
A|-----------------------------------|-----------------------------------|
F| chord diagramF|F|----------------5------------------|----------------5------------------|
C| chord diagramC|C|------------------7----4/5--4/5----|------------------7----------------|
G|--5-----5-8-7-5-----------------5--|--5-----5-8-7-5--------------------|
C| chord diagramC|C|-----------------------------------|-----------------------------------| 2x


Pre Chorus
D|----------------------------------|-----------------------|
A|----------------------------------|-----------------------|
F| chord diagramF|F|----------------------------------|-------9h10p9----------|
C| chord diagramC|C|-12p0h12p0h12p0h12p0h12p0h12p0h12-|-10h12--------12p10h12-|
G|----------------------------------|-----------------------|
C| chord diagramC|C|----------------------------------|-----------------------|

D|----------------------------------|--------------------------|
A|----------------------------------|--------------------------|
F| chord diagramF|F|----------------------------------|--------------------------|
C| chord diagramC|C|-12p0h12p0h12p0h12p0h12p0h12p0h12-|-17h19p17h19p17h19p17h19p-|
G|----------------------------------|--------------------------|
C| chord diagramC|C|----------------------------------|--------------------------|

D|----------------------------------|-----------------------|
A|----------------------------------|-----------------------|
F| chord diagramF|F|----------------------------------|-------9h10p9----------|
C| chord diagramC|C|-12p0h12p0h12p0h12p0h12p0h12p0h12-|-10h12--------12p10h12-|
G|----------------------------------|-----------------------|
C| chord diagramC|C|----------------------------------|-----------------------|

D|----------------------------------|--------------------------|
A|----------------------------------|--------------------------|
F| chord diagramF|F|----------------------------------|--------------------------|
C| chord diagramC|C|-12p0h12p0h12p0h12p0h12p0h12p0h12/|--------------------------|
G|----------------------------------|--------------------------|
C| chord diagramC|C|----------------------------------|--------------------------|

Chorus
Lyric: To the west. To the west!
D|-------------------------------------|
A|-------------------------------------|
F| chord diagramF|F|-------------------------------------|
C| chord diagramC|C|--0---0---0---0-0-0-7--8-8-8--3-3-5--|
G|--0---0---0---0-0-0-7--8-8-8--3-3-5--|
C| chord diagramC|C|--0---0---0---0-0-0-7--8-8-8--3-3-5--|

D|-------------------------------------|
A|-------------------------------------|
F| chord diagramF|F|-------------------------------------|
C| chord diagramC|C|--0---0---0---0-0-0-7--8-8-----------|
G|--0---0---0---0-0-0-7--8-8-----------|
C| chord diagramC|C|--0---0---0---0-0-0-7--8-8-10-10-5-7-|

Play these two sections 2x

Chorus Lead part
D|------------------------------------|
A|------------------------------------|
F| chord diagramF|F|------------------------------------|
C| chord diagramC|C|------------------------------------|
G|--5----3h5--------5---3h5/8-10-7-8--|
C| chord diagramC|C|----7-------7-7-----7---------------| This repeats



Post Chorus
D|-----------------------------------|
A|-----------------------------------|
F| chord diagramF|F|-----------------------------------|
C| chord diagramC|C|-----------------------------------|
G|-----------------------------------|
C| chord diagramC|C|--0-0-10h12-0-0-0-10h12-0-0--------|

Post Chorus lead part
D|-----------------------------------|-----------------------------------|
A|-----------------------------------|-----------------------------------|
F| chord diagramF|F|----------------5------------------|----------------5------------------|
C| chord diagramC|C|------------------7----4/5--4/5----|------------------7----------4/5---|
G|--5-----5-8-7-5-----------------5--|--5-----5-8-7-5------------------5-|
C| chord diagramC|C|-----------------------------------|-----------------------------------|

D|-----------------------------------|-----------------------------------|
A|-----------------------------------|-----------------------------------|
F| chord diagramF|F|----------------5------------------|----------------5------------------|
C| chord diagramC|C|------------------7----4/5--4/5----|------------------7----------4/5---|
G|--5-----5-8-7-5-----------------5--|--5-----5-8-7-5--------------------|
C| chord diagramC|C|-----------------------------------|-----------------------------------|


verse 2


Chorus
Lyric: To the west. To the west!
D|-------------------------------------|
A|-------------------------------------|
F| chord diagramF|F|-------------------------------------|
C| chord diagramC|C|--0---0---0---0-0-0-7--8-8-8--3-3-5--|
G|--0---0---0---0-0-0-7--8-8-8--3-3-5--|
C| chord diagramC|C|--0---0---0---0-0-0-7--8-8-8--3-3-5--|

D|-------------------------------------|
A|-------------------------------------|
F| chord diagramF|F|-------------------------------------|
C| chord diagramC|C|--0---0---0---0-0-0-7--8-8-----------|
G|--0---0---0---0-0-0-7--8-8-----------|
C| chord diagramC|C|--0---0---0---0-0-0-7--8-8-10-10-5-7-|

Play these two sections 2x

Chorus Lead part
D|------------------------------------|
A|------------------------------------|
F| chord diagramF|F|------------------------------------|
C| chord diagramC|C|------------------------------------|
G|--5----3h5--------5---3h5/8-10-7-8--|
C| chord diagramC|C|----7-------7-7-----7---------------| This repeats



Riff post Chorus
D|-------------------------------------|-----------------------------------|
A|---------10~--------10~--------------|--------11~--------8~--------------|
F| chord diagramF|F|-------------------------------------|-----------------------------------|
C| chord diagramC|C|--0---0------0---0-------0-x-x-x-x-3-|-0---0------0---0------------------|
G|--0---0------0---0-------0-x-x-x-x-3-|-0---0------0---0------------------|
C| chord diagramC|C|--0---0------0---0-------0-x-x-x-x-3-|-0---0------0---0------5-7-7-5-3-0-| 2x


Breakdown
D|------------------------------|--------------------------------------|
A|------------------------------|--------------------------------------|
F| chord diagramF|F|------------------------------|--------------------------------------|
C| chord diagramC|C|------------------------------|--------------------------------------|
G|------------------------------|--------------------------------------|
C| chord diagramC|C|-12-10-12-10-0--12-10-12-10-0-|-3-1-3-1-0--3-1-3-1-0--3-3-3-3-5-5-5-5|

D|------------------------------|--------------------------------------|
A|------------------------------|--------------------------------------|
F| chord diagramF|F|------------------------------|--------------------------------------|
C| chord diagramC|C|------------------------------|-----------------------6---1----------|
G|------------------------------|-----------------------6---1----------|
C| chord diagramC|C|-12-10-12-10-0--12-10-12-10-0-|-3-1-3-1-0--3-1-3-1-0--6---1----------|

D|------------------------------|--------------------------------------|
A|------------------------------|--------------------------------------|
F| chord diagramF|F|------------------------------|--------------------------------------|
C| chord diagramC|C|------------------------------|--------------------------------------|
G|------------------------------|--------------------------------------|
C| chord diagramC|C|-12-10-12-10-0--12-10-12-10-0-|-3-1-3-1-0--3-1-3-1-0--3-3-3-3-5-5-5-5|

D|------------------------------|--------------------------------------|
A|------------------------------|--------------------------------------|
F| chord diagramF|F|------------------------------|--------------------------------------|
C| chord diagramC|C|------------------------------|-----------------------4---3---1------|
G|------------------------------|-----------------------4---3---1------|
C| chord diagramC|C|-12-10-12-10-0--12-10-12-10-0-|-3-1-3-1-0--3-1-3-1-0--4---3---1------|

D|------------------------------|--------------------------------------|
A|------------------------------|--------------------------------------|
F| chord diagramF|F|------------------------------|--------------------------------------|
C| chord diagramC|C|------------------------------|--------------------------------------|
G|------------------------------|--------------------------------------|
C| chord diagramC|C|-12-10-12-10-0--12-10-12-10-0-|-3-1-3-1-0--3-1-3-1-0--3-3-3-3-5-5-5-5|

D|------------------------------|--------------------------------------|
A|------------------------------|--------------------------------------|
F| chord diagramF|F|------------------------------|--------------------------------------|
C| chord diagramC|C|------------------------------|--------------4--3--4--1-1-1----------|
G|------------------------------|--------------4--3--4--1-1-1----------|
C| chord diagramC|C|-12-10-12-10-0--12-10-12-10-0-|-3-1-3-1-0----4--3--4--1-1-1----------|


Clean part
D|------------------------------------|
A|------------------------------------|
F| chord diagramF|F|------------------------------------|
C| chord diagramC|C|------------------------------------|
G|--5----3h5--------5---3h5/8-10-7-8--|
C| chord diagramC|C|----7-------7-7-----7---------------| This repeats


Bridge
D|--------------------------------|--------------------------------|
A|--------------------------------|--------------------------------|
F| chord diagramF|F|--------------------------------|--------------------------------|
C| chord diagramC|C|--0-0-0-0-0-0-0-0-0-0-0-0-0-0-0-|-10-10-10-10-10-10-10-10-10-10--|
G|--0-0-0-0-0-0-0-0-0-0-0-0-0-0-0-|-10-10-10-10-10-10-10-10-10-10--|
C| chord diagramC|C|--0-0-0-0-0-0-0-0-0-0-0-0-0-0-0-|-10-10-10-10-10-10-10-10-10-10--|

D|--------------------------------|--------------------------------|
A|--------------------------------|--------------------------------|
F| chord diagramF|F|--------------------------------|--------------------------------|
C| chord diagramC|C|--7-7-7-7-7-7-7-7-7-7-7-7-7-7-7-|-8-8-8-8-8-8-8-8-8-8-8-8-8-8-8--|
G|--7-7-7-7-7-7-7-7-7-7-7-7-7-7-7-|-8-8-8-8-8-8-8-8-8-8-8-8-8-8-8--|
C| chord diagramC|C|--7-7-7-7-7-7-7-7-7-7-7-7-7-7-7-|-8-8-8-8-8-8-8-8-8-8-8-8-8-8-8--|

Solo (during bridge)
D|-13-13-13-13-13-13-13-13-13-13-13-13-13-|-12-12-12-12-12-12-12-12-12-12-12-|
A|----------------------------------------|----------------------------------|
F| chord diagramF|F|----------------------------------------|----------------------------------|
C| chord diagramC|C|----------------------------------------|----------------------------------|
G|----------------------------------------|----------------------------------|
C| chord diagramC|C|----------------------------------------|----------------------------------|

D|-8-8-8-8-8-8-8-8-8-8-8-8-8-8-8-8-8-8-8--|-10-10-10-10-10-10-10-10-10-10-10-|
A|----------------------------------------|----------------------------------|
F| chord diagramF|F|----------------------------------------|----------------------------------|
C| chord diagramC|C|----------------------------------------|----------------------------------|
G|----------------------------------------|----------------------------------|
C| chord diagramC|C|----------------------------------------|----------------------------------|


Pre Chorus
D|-----------------------------------|
A|-----------------------------------|
F| chord diagramF|F|-----------------------------------|
C| chord diagramC|C|-----------------------------------|
G|-----------------------------------|
C| chord diagramC|C|--0-0-10h12-0-0-0-10h12-0-0--------|


Lead part
D|-----------------------------------|-----------------------------------|
A|-----------------------------------|-----------------------------------|
F| chord diagramF|F|----------------5------------------|----------------5------------------|
C| chord diagramC|C|------------------7----4/5--4/5----|------------------7----------4/5---|
G|--5-----5-8-7-5-----------------5--|--5-----5-8-7-5------------------5-|
C| chord diagramC|C|-----------------------------------|-----------------------------------|

D|-----------------------------------|-----------------------------------|
A|-----------------------------------|-----------------------------------|
F| chord diagramF|F|----------------5------------------|----------------5------------------|
C| chord diagramC|C|------------------7----4/5--4/5----|------------------7----------------|
G|--5-----5-8-7-5-----------------5--|--5-----5-8-7-5--------------------|
C| chord diagramC|C|-----------------------------------|-----------------------------------|


Chorus
Lyrics: To the west. To the west!
Palm muted
D|---------------------------------|
A|---------------------------------|
F| chord diagramF|F|---------------------------------|
C| chord diagramC|C|---------------------------------|
G|---------------------------------|
C| chord diagramC|C|-0-0-0-0-0-0-0-7-7-8-8-8-8-3-3-5-|

D|---------------------------------|
A|---------------------------------|
F| chord diagramF|F|---------------------------------|
C| chord diagramC|C|---------------------------------|
G|---------------------------------|
C| chord diagramC|C|-0-0-0-0-0-0-0-7-7-8-8-8-8-10----|


Palm muted
D|------------------------------------|---------------------------------|
A|------------------------------------|---------------------------------|
F| chord diagramF|F|------------------------------------|---------------------------------|
C| chord diagramC|C|------------------------------------|---------------------------------|
G|--5----3h5--------5---3h5/8-10-7-8--|--5----3h5---------5---3h5-8-10--|
C| chord diagramC|C|----7-------7-7-----7---------------|----7-------7-7------7-----------|



Outro
D|------------------------------------|
A|------------------------------------|
F| chord diagramF|F|------------------------------------|
C| chord diagramC|C|------------------------------------|
G|--5----3h5--------5---3h5/8-10-7-8--|
C| chord diagramC|C|----7-------7-7-----7---------------|

Lead part
D|-----------------------------------|-----------------------------------|
A|-----------------------------------|-----------------------------------|
F| chord diagramF|F|----------------5------------------|----------------5------------------|
C| chord diagramC|C|------------------7----4/5--4/5----|------------------7----------4/5---|
G|--5-----5-8-7-5-----------------5--|--5-----5-8-7-5------------------5-|
C| chord diagramC|C|-----------------------------------|-----------------------------------|

D|-----------------------------------|-----------------------------------|
A|-----------------------------------|-----------------------------------|
F| chord diagramF|F|----------------5------------------|----------------5------------------|
C| chord diagramC|C|------------------7----4/5--4/5----|------------------7----------------|
G|--5-----5-8-7-5-----------------5--|--5-----5-8-7-5--------------------|
C| chord diagramC|C|-----------------------------------|-----------------------------------|


************************************

| /  Slide up
| h  Hammer-on
| p  Pull-off
| ~  Vibrato
| x  Dead note

************************************

Almost there ...

Sign in to get your own page with links to favourite songs and more. You are just one click away...

Login with Facebook Login with Google