Log in

One click and you are in

Login with Facebook Login with Google

Why sign up and log in

Guitar Tabs Explorer
Weyes Blood guitar tabs for Andromeda

Guitar tabs

Tuning: Standard (E A D G B E)

Post-Chorus:

e|------------12/14\12/14--------------12/14\12/14---------------------------|
B|------14----------------12/14----------------------12/14--12---------------|
G|---------------------------------------------------------------------------|
D|---------------------------------------------------------------------------|
A|---------------------------------------------------------------------------|
E|---------------------------------------------------------------------------|

e|---------------------------------------------------------------------------|
B|----------------------12/14\12---------------------------------------------|
G|---11/13---11/9/8------------------11/13-----------------------------------|
D|---------------------------------------------------------------------------|
A|---------------------------------------------------------------------------|
E|---------------------------------------------------------------------------|

Verse:

Pre-Chorus:
   Somethings better than...
e|--------------------------------9/10/9-------------------------------------|
B|---12/14/12-----------------------------9----------------------------------|
G|-------------11------------------------------------------------------------|
D|---------------------------------------------------------------------------|
A|---------------------------------------------------------------------------|
E|---------------------------------------------------------------------------|

e|------------------------------10/12---9------------------------------------|
B|-----10---12/14\9----------------------------------------------------------|
G|-----------------------------------------13\11\9--11-----------------------|
D|---------------------------------------------------------------------------|
A|---------------------------------------------------------------------------|
E|---------------------------------------------------------------------------|

Chorus:

e|------------10/12-----11----------14/16----------7/9-----------------------|
B|-----7/9--------------------------14/16----------7/9-----------------------|
G|---------------------------------------------------------------------------|
D|---------------------------------------------------------------------------|
A|---------------------------------------------------------------------------|
E|---------------------------------------------------------------------------|

e|----------------------------------------------------16\14/16---------------|
B|---10---12/14\9--------------9/12------------------------------------------|
G|---------------------------------------------------------------------------|
D|---------------------------------------------------------------------------|
A|---------------------------------------------------------------------------|
E|---------------------------------------------------------------------------|

Post-Chorus:

e|-------12/14\12/14------------------16/17\16/17------14\11-----------------|
B|12/14--------------12/14---------------------------------------------------|
G|---------------------------------------------------------------------------|
D|---------------------------------------------------------------------------|
A|---------------------------------------------------------------------------|
E|---------------------------------------------------------------------------|

e|---11/12----11\9\7---------------------------------------------------------|
B|-----------------------------12/14\12--------------------------------------|
G|----------------------------------------11/13------------------------------|
D|---------------------------------------------------------------------------|
A|---------------------------------------------------------------------------|
E|---------------------------------------------------------------------------|


Bridge:


More than anything...

e|---------------12----12/14\11------------11/14------12\11------------------|
B|----------12/14------------------------------------------------------------|
G|---------------------------------------------------------------------------|
D|---------------------------------------------------------------------------|
A|---------------------------------------------------------------------------|
E|---------------------------------------------------------------------------|


Verse:

 Getting tired of looking...
e|--------------12\10-----------------------12\10----------------------------|
B|-----------------------12-10-9-7---------------12-11-10-9------------------|
G|---------------------------------------------------------------------------|
D|---------------------------------------------------------------------------|
A|---------------------------------------------------------------------------|
E|---------------------------------------------------------------------------|

e|-----7/9-----------------------------10/12\9-------------------------------|
B|----------10\7--------------------------------9-7-----7-----9-10-12-14--12-|
G|-----------------9-8-6----------------------------9-6----------------------|
D|---------------------------------------------------------------------------|
A|---------------------------------------------------------------------------|
E|---------------------------------------------------------------------------|


Chorus:


e|-11/12------12/11----14\--11\----------------------7/9--------14-9---------|
B|--------12---------------------12\-10----9---------7/9-------------14\9----|
G|---------------------------------------------------------------------------|
D|---------------------------------------------------------------------------|
A|---------------------------------------------------------------------------|
E|---------------------------------------------------------------------------|

              (the 12b - sounds more sharp than b, but more flat than c)
e|-/12-----14/16\14---12\11----------------------------------16\14/16\14\12--|
B|----------------------------10/12b---------14/16---------------------------|
G|---------------------------------------------------------------------------|
D|---------------------------------------------------------------------------|
A|---------------------------------------------------------------------------|
E|---------------------------------------------------------------------------|


e|-----12/14\12/14----------------12/14/16\14--------------------------------|
B|--14----------------12/14-------------------12/14-12-----------------------|
G|---------------------------------------------------------------------------|
D|---------------------------------------------------------------------------|
A|---------------------------------------------------------------------------|
E|---------------------------------------------------------------------------|

e|---------------------------------------------------------------------------|
B|----------------------12/14\12---------------------------------------------|
G|---11/13---11/9/8------------------11/13-----------------------------------|
D|---------------------------------------------------------------------------|
A|---------------------------------------------------------------------------|
E|---------------------------------------------------------------------------|


************************************

| b   Bend
| /   Slide up
| \   Slide down


************************************

↓ Add and view comments below ↓

What do you think about this song and these tabs?

Add your comments, questions, rant or a thumbs up below.

Almost there ...

Sign in to get your own page with links to favourite songs and more. You are just one click away...

Login with Facebook Login with Google