Log in

One click and you are in

Login with Facebook Login with Google

Why sign up and log in

Guitar Tabs Explorer
Weezer guitar tabs for Getting up and leaving

Guitar tabs with lyrics

-------------------------------------------------------------------------------
                             GETTING UP AND LEAVING - Weezer
-------------------------------------------------------------------------------
------------------------------As heard on Pinkerton Deluxe---------------------
-------------------------------------------------------------------------------

                                **Tabbed by QWEEWQAZ**
                                       11/07/10
                      ++Composed by Rivers Cuomo and Patrick Wilson++

TUNE TO HALF STEP!!

b = bend

/ = slide

GTR = both guitars


INTRO - GTR1 0:00-0:09
e||------------------------------------11--------------------------------------------|
B||----9---------7------------------9---------------------7-----------------7-7b-7b--|
G||------9---------8---8----------9---9---------------8-9----9-8--------8-9----------|
D||--------9---------9-----9/11----------------11/9-9------------9----9--------------|
A||----------------------------------------------------------------------------------|
E||--0-------------------------------------------------------------------------------|


INTRO - GTR2 0:05-0:09
e||------------------|
B||--------7-7b-7b---|
G||----8-9-----------|
D||--9---------------|
A||------------------|
E||------------------|
    (vol swell)


BRIDGE - GTR1 0:09-0:18
e||-------------------------------------------------------------------|
B||--9-9-9-9-9-9-7-5-4-2-2-2-4-4-4-5-5-7-7-7-5-5-5-3-3-2-2-2-2-2-2-2--|
G||-------------------------------------------------------------------|
D||-------------------------------------------------------------------|
A||-------------------------------------------------------------------|
E||-------------------------------------------------------------------|


BRIDGE - GTR2 0:09-0:18
e||-----------------------------------------------------|
B||-----------------------------------------------------|
G||--9--9--9--9---6--6--6--6----------------------------|
D||--9--9--9--9---6--6--6--6---9--9--9--9---7--7--7--7--|
A||--7--7--7--7---4--4--4--4---9--9--9--9---7--7--7--7--|
E||----------------------------7--7--7--7---5--5--5--5--|


VERSE - GTR2  0:19-0:32
e||------------------------------------------------|
B||------------------------------------------------|
G||--9---9--------6---6----------------------------|
D||--9---9--------6---6--------9---9--------7---7--| x 2
A||--7---7--------4---4--------9---9--------7---7--|
E||----------------------------7---7--------5---5--|
        My life is changin.....


VERSE OVERLAY - GTR1 0:19-0:32
e|--------------------------------------------------------------------------|
B|--9-9-9-9---------------------------9-9-9b-9b-9b--------------------------|
G|---------------9-9-9-9-9-9-10-10-10----------------9-9-9-9-9--------------|
D|-------------------------------------------------------------10-10-10-10--|
A|--------------------------------------------------------------------------|
E|--------------------------------------------------------------------------|
  (WAAAAAAAAAAAAAAAAAAAAAAAAAAAAAAAAAHHHHHHHHHHHHHH) *inaccurate*

BUILD - GTR 0:33-0:37
e||-----------------------------------|
B||-----------------------------------|
G||-----------------------------------|
D||-6-6-6-6-6-6-6-6--7-7-7-7-7-7-7-7--|
A||-6-6-6-6-6-6-6-6--7-7-7-7-7-7-7-7--|
E||-4-4-4-4-4-4-4-4--5-5-5-5-5-5-5-5--|
          TRUEEEEEE    OOOOH OOOOOOOOH


PRE-CHORUS - GTR 0:37-0:55
e||----------------------------------------------------------------------|
B||----------------------------------------------------------------------|
G||--6-6-6-6-6-6-6-6--1-1-1-1-1-1-1-1--3-3-3-3-3-3-3-3--2-2-2-2-2-2-2-2--|
D||--6-6-6-6-6-6-6-6--2-2-2-2-2-2-2-2--3-3-3-3-3-3-3-3--2-2-2-2-2-2-2-2--| x 2
A||--4-4-4-4-4-4-4-4--2-2-2-2-2-2-2-2--2-2-2-2-2-2-2-2--0-0-0-0-0-0-0-0--|
E||-------------------0-0-0-0-0-0-0-0------------------------------------|
     STOP!        I RLY RLY WANNA GO   BACK.........

FILL - GTR 0:56-0:58
e||-----------------|
B||--0-2-4-5-7b-7b--|
G||-----------------|
D||-----------------|
A||-----------------|
E||-----------------|


CHORUS - GTR1 0:59-1:17
e||----------------------------------------------------------------------|
B||----------------------------------------------------------------------|
G||--1-1-1-1-1-1-1-1--6-6-6-6-6-6-6-6--4-4-4-4-4-4-4-4--2-2-2-2-2-2-2-2--|
D||--2-2-2-2-2-2-2-2--6-6-6-6-6-6-6-6--4-4-4-4-4-4-4-4--2-2-2-2-2-2-2-2--| x 2
A||--2-2-2-2-2-2-2-2--4-4-4-4-4-4-4-4--2-2-2-2-2-2-2-2--0-0-0-0-0-0-0-0--|
E||--0-0-0-0-0-0-0-0-----------------------------------------------------|
     NOW IM GETTING UP AND LEEEEEAVIN      I'M LEAVIN    HOOOOOOOOMEEEE!...


CHORUS - GTR2 0:59-1:17
e|----------------------------------------------------------------------|
B|--9-9-9-9-9-9-9-9-----------------------------------------------------|
G|--9-9-9-9-9-9-9-9--6-6-6-6-6-6-6-6------------------------------------|
D|--9-9-9-9-9-9-9-9--6-6-6-6-6-6-6-6--9-9-9-9-9-9-9-9--7-7-7-7-7-7-7-7--| x 2
A|--7-7-7-7-7-7-7-7--4-4-4-4-4-4-4-4--9-9-9-9-9-9-9-9--7-7-7-7-7-7-7-7--|
E|------------------------------------7-7-7-7-7-7-7-7--5-5-5-5-5-5-5-5--|


**REPEAT AS NEEDED ABOVE**
BRIDGE2        - GTR1 1:18-1:26
BRIDGE2        - GTR2 1:18-1:26

VERSE2         - GTR2 1:27-1:40

VERSE OVERLAY2 - GTR1 1:27-1:40
BUILD2         - GTR  1:41-1:45

PRE-CHORUS2    - GTR  1:46-2:04
FILL2          - GTR  2:04-2:06

CHORUS2        - GTR1  2:07-2:25

CHORUS2        - GTR2  2:07-2:25


SOLO - GTR1 2:26-2:44
e|--------------------------------------------------7----------------------------|
B|---------------5------7------9------7------9------9----------9-7------9-7------|
G|--9------------6------8------8------8------8------8--------------9-8------9-8--|
D|--9------------7------9------9------9------9------9----------------------------|
A|--7----------------------------------------------------------------------------|
E|-------------------------------------------------------------------------------|
                (CLEAN - HOLD NOTES) *possibly inaccurate*


SOLO - GTR2 2:35-2:44
e|-------------------------------------------------------------------------------|
B|-------------------------------------------------------------------------------|
G|-------------------------------------------------------------------------------|
D|-------------------------------------------------------------------------------|
A|-------------------------------------------------------------------------------|
E|-------------------------------------------------------------------------------|
     (LIGHT FEEDBACK - SWELL - WAH)


ENDING BRIDGE - GTR1 2:45-3:03
e||-------------------------------------------------------------------|
B||--9-9-9-9-9-9-7-5-4-2-2-2-4-4-4-5-5-7-7-7-5-5-5-3-3-2-2-2-2-2-2-2--|
G||-------------------------------------------------------------------|
D||-------------------------------------------------------------------| x 2
A||-------------------------------------------------------------------|
E||-------------------------------------------------------------------|


ENDING BRIDGE - GTR2 2:45-3:03
e||-----------------------------------------------------|
B||-----------------------------------------------------|
G||--9--9--9--9---6--6--6--6----------------------------|
D||--9--9--9--9---6--6--6--6---9--9--9--9---7--7--7--7--| x 2
A||--7--7--7--7---4--4--4--4---9--9--9--9---7--7--7--7--|
E||----------------------------7--7--7--7---5--5--5--5--|
    (WAAAAAAAAAAAAAAAAAAAAAAAAAAAAAAAAAHHHHHHHHHHHHHH)


ENDING CHORUS - GTR1 3:03-3:13
e||----------------------------------------------------------------------|
B||----------------------------------------------------------------------|
G||--1-1-1-1-1-1-1-1--6-6-6-6-6-6-6-6--4-4-4-4-4-4-4-4--2-2-2-2-2-2-2-2--|
D||--2-2-2-2-2-2-2-2--6-6-6-6-6-6-6-6--4-4-4-4-4-4-4-4--2-2-2-2-2-2-2-2--|
A||--2-2-2-2-2-2-2-2--4-4-4-4-4-4-4-4--2-2-2-2-2-2-2-2--0-0-0-0-0-0-0-0--|
E||--0-0-0-0-0-0-0-0-----------------------------------------------------|
     NOW IM GETTING UP NOW IM GETTING UP....


ENDING CHORUS - GTR2 3:03-3:13
e|----------------------------------------------------------------------|
B|--9-9-9-9-9-9-9-9-----------------------------------------------------|
G|--9-9-9-9-9-9-9-9--6-6-6-6-6-6-6-6------------------------------------|
D|--9-9-9-9-9-9-9-9--6-6-6-6-6-6-6-6--9-9-9-9-9-9-9-9--7-7-7-7-7-7-7-7--|
A|--7-7-7-7-7-7-7-7--4-4-4-4-4-4-4-4--9-9-9-9-9-9-9-9--7-7-7-7-7-7-7-7--|
E|------------------------------------7-7-7-7-7-7-7-7--5-5-5-5-5-5-5-5--|
     NOW IM GETTING UP NOW IM GETTING UP....


ENDING - GTR1 3:13-3:30
e||----------------------------------------------------|
B||----------------------------------------------------|
G||--1-1-1-1-1-1-1-1--6-6-6-6-6-6-6-6--4-4-4-4------2--|
D||--2-2-2-2-2-2-2-2--6-6-6-6-6-6-6-6--4-4-4-4------2--|
A||--2-2-2-2-2-2-2-2--4-4-4-4-4-4-4-4--2-2-2-2------0--|
E||--0-0-0-0-0-0-0-0-----------------------------------|
     NOW IM GETTING UP NOW IM GETTING UP....  I'M   LEAAAAAAAAAAVIIIIN

ENDING - GTR1 3:13-3:30
e||----------------------------------------------------|
B||--9-9-9-9-9-9-9-9-----------------------------------|
G||--9-9-9-9-9-9-9-9--6-6-6-6-6-6-6-6--4-4-4-4------2--|
D||--9-9-9-9-9-9-9-9--6-6-6-6-6-6-6-6--4-4-4-4------2--|
A||--7-7-7-7-7-7-7-7--4-4-4-4-4-4-4-4--2-2-2-2------0--|
E||----------------------------------------------------|

Other versions of Getting Up And Leaving

Getting up and leavingChords

↓ Add and view comments below ↓

What do you think about this song and these tabs?

Add your comments, questions, rant or a thumbs up below.

Almost there ...

Sign in to get your own page with links to favourite songs and more. You are just one click away...

Login with Facebook Login with Google