Log in

One click and you are in

Login with Facebook Login with Google

Why sign up and log in

Guitar Tabs Explorer
Weezer guitar tabs for Getchoo

Guitar tabs

Tuning: Half-Step Down (A chord diagramD#D# A chord diagramG#G# A chord diagramC#C# A chord diagramF#F# A chord diagramA#A# A chord diagramD#D#)

Difficulty: Novice


Intro:
                 1st guitar
D#|---------------------------------------------------------------------------|
A#|---------------------------------------------------------------------------|
F#|---2~~~/////////////9~~~----x2---------------------------------------------|
C#|---------------------------------------------------------------------------|
G#|---------------------------------------------------------------------------|
D#|---------------------------------------------------------------------------|
                 2nd guitar
D#|----5----------------x-------------strum-pattern- ?- ? ? ------------------|
A#|----5----------------x-----------------------------------------------------|
F#|----5-x7-////////////x---x7--------repeat-this-whole-affair--twice---------|
C#|----7----------------2-----------------------------------------------------|
G#|----7----------------2-----------------------------------------------------|
D#|----5----------------0-----------------------------------------------------|


Verse 1:

D#|----5----------------x-------------strum-pattern- ?- ? ? ------------------|
A#|----5----------------x-----------------------------------------------------|
F#|----5-x7-////////////x---x7--------repeat-twice-again----------------------|
C#|----7----------------2-----------------------------------------------------|
G#|----7----------------2-----------------------------------------------------|
D#|----5----------------0-----------------------------------------------------|



D#|----5--------------5----------7--------5-----------------------------------|
A#|----5--------------5----------7--------5-----------------------------------|
F#|----5--x7----------7--x7------9--x7----5---x7------------------------------|
C#|----7--------------7----------9--------7-----------------------------------|
G#|----7--------------5----------7--------7-----------------------------------|
D#|----5--------------5----------7--------5-----------------------------------|

                 1st guitar
D#|---------------------------------------------------------------------------|
A#|---------------------------------------------------------------------------|
F#|---2~~~/////////////9~~~----x2---------------------------------------------|
C#|---------------------------------------------------------------------------|
G#|---------------------------------------------------------------------------|
D#|---------------------------------------------------------------------------|

                 2nd guitar
D#|----5----------------x-------------strum-pattern- ?- ? ? ------------------|
A#|----5----------------x-----------------------------------------------------|
F#|----5-x7-////////////x----x7--------repeat-twice-again---------------------|
C#|----7----------------2-----------------------------------------------------|
G#|----7----------------2-----------------------------------------------------|
D#|----5----------------0-----------------------------------------------------|



Chorus:

D#|-----7----7---x---------------------7--7-------------------------------------|
A#|-----7----7---x---------------------7--7-------------------------------------|
F#|-----7----7---x---------------------7--7-------------------------------------|
C#|-----9----9---x--9/////11----x3-----9--9--x3---------------------------------|
G#|-----9----9---x--7/////9------------9--9-------------------------------------|
D#|-----7----7---x--0-----0------------7--7-------------------------------------|


                 1st guitar
D#|---------------------------------------------------------------------------|
A#|---------------------------------------------------------------------------|
F#|---2~~~/////////////9~~~----x2---------------------------------------------|
C#|---------------------------------------------------------------------------|
G#|---------------------------------------------------------------------------|
D#|---------------------------------------------------------------------------|
                 2nd guitar
D#|----5----------------x-------------strum-pattern- ?- ? ? ------------------|
A#|----5----------------x-----------------------------------------------------|
F#|----5-x7-////////////x---x7--------repeat-this-whole-affair--twice---------|
C#|----7----------------2-----------------------------------------------------|
G#|----7----------------2-----------------------------------------------------|
D#|----5----------------0-----------------------------------------------------|


Verse 2:

D#|----5----------------x-------------strum-pattern- ?- ? ? ------------------|
A#|----5----------------x-----------------------------------------------------|
F#|----5-x7-////////////x---x7--------repeat-twice-again----------------------|
C#|----7----------------2-----------------------------------------------------|
G#|----7----------------2-----------------------------------------------------|
D#|----5----------------0-----------------------------------------------------|



D#|----5--------------5----------7--------5-----------------------------------|
A#|----5--------------5----------7--------5-----------------------------------|
F#|----5--x7----------7--x7------9--x7----5---x7------------------------------|
C#|----7--------------7----------9--------7-----------------------------------|
G#|----7--------------5----------7--------7-----------------------------------|
D#|----5--------------5----------7--------5-----------------------------------|

                 1st guitar
D#|---------------------------------------------------------------------------|
A#|---------------------------------------------------------------------------|
F#|---2~~~/////////////9~~~----x2---------------------------------------------|
C#|---------------------------------------------------------------------------|
G#|---------------------------------------------------------------------------|
D#|---------------------------------------------------------------------------|


                 2nd guitar
D#|----5----------------x-------------strum-pattern- ?- ? ? ------------------|
A#|----5----------------x-----------------------------------------------------|
F#|----5-x7-////////////x----x7--------repeat-twice-again---------------------|
C#|----7----------------2-----------------------------------------------------|
G#|----7----------------2-----------------------------------------------------|
D#|----5----------------0-----------------------------------------------------|



Bridge:

D#|----5--5--5--x--------------------------------------------------------------|
A#|----5--5--5--x--------------------------------------------------------------|
F#|----5--5--5--x--x14---------------------------------------------------------|
C#|----7--7--7--x--------------------------------------------------------------|
G#|----7--7--7--x--------------------------------------------------------------|
D#|----5--5--5--x--------------------------------------------------------------|



Solo:
                This is only the 2nd guitar of the solo

D#|----5----------------x-------------strum-pattern- ?- ? ? -------------------|
A#|----5----------------x------------------------------------------------------|
F#|----5-x7-////////////x---x7--------repeat-through-the-whole-solo------------|
C#|----7----------------2------------------------------------------------------|
G#|----7----------------2------------------------------------------------------|
D#|----5----------------0------------------------------------------------------|




Chorus:

D#|-----7----7---x---------------------7--7-------------------------------------|
A#|-----7----7---x---------------------7--7-------------------------------------|
F#|-----7----7---x---------------------7--7-------------------------------------|
C#|-----9----9---x--9/////11----x3-----9--9--x3---------------------------------|
G#|-----9----9---x--7/////9------------9--9-------------------------------------|
D#|-----7----7---x--0-----0------------7--7-------------------------------------|


Outro:
                 1st guitar
D#|---------------------------------------------------------------------------|
A#|---------------------------------------------------------------------------|
F#|---2~~~/////////////9~~~----x4---------------------------------------------|
C#|---------------------------------------------------------------------------|
G#|---------------------------------------------------------------------------|
D#|---------------------------------------------------------------------------|


                 2nd guitar
D#|----5----------------x-------------strum-pattern- ? - - - - ---------------|
A#|----5----------------x-----------------------------------------------------|
F#|----5-x7-///////////-x----x7--------Four times-----------------------------|
C#|----7----------------2-----------------------------------------------------|
G#|----7----------------2-----------------------------------------------------|
D#|----5----------------0-----------------------------------------------------|


| x   Muted note
| ~   Vibrato

Other versions of Getchoo

GetchooChords

↓ Add and view comments below ↓

What do you think about this song and these tabs?

Add your comments, questions, rant or a thumbs up below.

Almost there ...

Sign in to get your own page with links to favourite songs and more. You are just one click away...

Login with Facebook Login with Google