Log in

One click and you are in

Login with Facebook Login with Google

Why sign up and log in

Guitar Tabs Explorer
Weezer guitar tabs for Get right

Guitar tabs

Intro]

Guitar 1

e|---------------|------------------------------|
B|----9-----7----|---5------5------5-----5----7-|
G|----9-----8----|-----6------6---------------8-|
D|-11-----9------|-7------7------7-----7----9---|
A|---------------|------------------------------|
E|---------------|------------------------------|

Verse 1:

Guitar 1
e|----------------------------|------------------------------------|
B|----9-------9-------9-----9-|---7-----5------5------5-----5----7-|
G|------9-------9-----------9-|---8-------6------6---------------8-|
D|-11-----11------11----11----|-9-----7------7------7-----7----9---| (x4)
A|----------------------------|------------------------------------|
E|----------------------------|------------------------------------|

e|----------------------------|
B|----9-------9-------9-----9-|
G|------9-------9-----------9-|
D|-11-----11------11----11----|
A|----------------------------|
E|----------------------------|


Chorus 1:

Guitar 2
e|-----x-x--------x--------x--------x-x-------|-x---------x--------x--------x-----|
B|-----x-x--------x--------x--------x-x-------|-x---------x--------x--------x-----|
G|--6--x-x--4--4--x--2--2--x-2-2-2--x-x-2-2-2-|-x--4-4-4--x--6--6--x-6-6-6--x--6--|
D|--6--x-x--4--4--x--2--2--x-2-2-2--x-x-2-2-2-|-x--4-4-4--x--6--6--x-6-6-6--x--6--| (x2)
A|--4--x-x--2--2--x--0--0--x-0-0-0--x-x-0-0-0-|-x--2-2-2--x--4--4--x-4-4-4--x--4--|
E|-----x-x--------x--------x--------x-x-------|-x---------x--------x--------x-----|


Verse 2:

Guitar 1
e|-------------------------|------------------x---------x--|
B|---9----7----5--5-----5--|--5----7----9---9-x---9---9-x--|
G|---9----8----6----6------|--6----8----9---9-x---9---9-x--|
D|--11----9----7------7----|--7----9---11--11-x--11--11-x--|
A|-------------------------|------------------x---------x--|
E|-------------------------|------------------x---------x--|

e|-------------------------------|------------------x--11-------9-x--|
B|---9----7----5--5-----5-----5--|--5----7----9---9-x---9-------9-x--|
G|---9----8----6----6-----6------|--6----8----9---9-x---9-------9-x--|
D|--11----9----7------7-----7----|--7----9---11--11-x--11--11--11-x--|
A|-------------------------------|------------------x-------------x--|
E|-------------------------------|------------------x-------------x--|

e|-------------------------|------------------x---------x--|
B|---9----7----5--5-----5--|--5----7----9---9-x---9---9-x--|
G|---9----8----6----6------|--6----8----9---9-x---9---9-x--|
D|--11----9----7------7----|--7----9---11--11-x--11--11-x--|
A|-------------------------|------------------x---------x--|
E|-------------------------|------------------x---------x--|

e|-------------------------|------------------x--11-------9-x--|
B|---9----7----5--5-----5--|--5----7----9---9-x---9-------9-x--|
G|---9----8----6----6------|--6----8----9---9-x---9-------9-x--|
D|--11----9----7------7----|--7----9---11--11-x--11--11--11-x--|
A|-------------------------|------------------x-------------x--|
E|-------------------------|------------------x-------------x--|


Chorus 2:

Guitar 1
e|------------------------------|-------------------------------|
B|---9---9---7--7---5--5--5--5--|--5--5---7--7---9---9---9---9--|
G|---9---9---8--8---6--6--6--6--|--6--6---8--8---9---9---9---9--|
D|--11--11---9--9---7--7--7--7--|--7--7---9--9--11--11--11--11--| (x4)
A|------------------------------|-------------------------------|
E|------------------------------|-------------------------------|
Guitar 2
e|-----x-x--------x--------x--------x-x-------|-x---------x--------x--------x-----|
B|-----x-x--------x--------x--------x-x-------|-x---------x--------x--------x-----|
G|--6--x-x--4--4--x--2--2--x-2-2-2--x-x-2-2-2-|-x--4-4-4--x--6--6--x-6-6-6--x--6--|
D|--6--x-x--4--4--x--2--2--x-2-2-2--x-x-2-2-2-|-x--4-4-4--x--6--6--x-6-6-6--x--6--| (x4)
A|--4--x-x--2--2--x--0--0--x-0-0-0--x-x-0-0-0-|-x--2-2-2--x--4--4--x-4-4-4--x--4--|
E|-----x-x--------x--------x--------x-x-------|-x---------x--------x--------x-----|


Bridge:

Guitar 2
e|------------2---x----------------|------------2---x----------------|
B|--2---------2---x----------------|--2---------2---x----------------|
G|--2----1----2---x--4--4-4-4-4-4--|--2----1----2---x--4--4-4-4-4-4--|
D|--2----2----4---x--4--4-4-4-4-4--|--2----2----4---x--4--4-4-4-4-4--|
A|-------2----4---x--2--2-2-2-2-2--|-------2----4---x--2--2-2-2-2-2--|
E|-------0----2---x----------------|-------0----2---x----------------|


Guitar 1
e|----------------------------------|--2----2-2----------------||
B|--2-------------------------------|--2----2-2----------------||
G|--2------------9--9-9-9-----------|--2----2-2------4--4-4-4--||
D|--2------------9--9-9-9-----------|--4----4-4------4--4-4-4--||
A|---------------7--7-7-7-----------|--4----4-4------2--2-2-2--||
E|----------------------------------|--2----2-2----------------||
Guitar 2                                                        |
e|-------------x-----------------x--|--2--2-2-2-2-x------------||
B|--2--2-2-2-2-x-----------------x--|--2--2-2-2-2-x------------||
G|--2--2-2-2-2-x--1--1-1-1-1-1-1-x--|--2--2-2-2-2-x--4--4-4-4--||
D|--2--2-2-2-2-x--2--2-2-2-2-2-2-x--|--4--4-4-4-4-x--4--4-4-4--||
A|-------------x--2--2-2-2-2-2-2-x--|--4--4-4-4-4-x--2--2-2-2--||
E|-------------x--0--0-0-0-0-0-0-x--|--2--2-2-2-2-x------------||


Guitar 1
e|----------------------------------|--2----2-2-----------------------||
B|--2-------------------------------|--2----2-2-----------------------||
G|--2------------9--9-9-9-----------|--2----2-2------4-4-4-4-4-4-4-4--||
D|--2------------9--9-9-9-----------|--4----4-4------4-4-4-4-4-4-4-2--||
A|---------------7--7-7-7-----------|--4----4-4------2-2-2-2-2-2-2-2--||
E|----------------------------------|--2----2-2-----------------------||
Guitar 2                                                               |
e|-------------x-----------------x--|--2--2-2-2-2-x-------------------||
B|--2--2-2-2-2-x-----------------x--|--2--2-2-2-2-x-------------------||
G|--2--2-2-2-2-x--1--1-1-1-1-1-1-x--|--2--2-2-2-2-x--4-4-4-4-4-4-4-4--||
D|--2--2-2-2-2-x--2--2-2-2-2-2-2-x--|--4--4-4-4-4-x--4-4-4-4-4-4-4-4--||
A|-------------x--2--2-2-2-2-2-2-x--|--4--4-4-4-4-x--2-2-2-2-2-2-2-2--||
E|-------------x--0--0-0-0-0-0-0-x--|--2--2-2-2-2-x-------------------||


Chorus 3:

Guitar 1
e|------------------------------|-------------------------------|
B|---9---9---7--7---5--5--5--5--|--5--5---7--7---9---9---9---9--|
G|---9---9---8--8---6--6--6--6--|--6--6---8--8---9---9---9---9--|
D|--11--11---9--9---7--7--7--7--|--7--7---9--9--11--11--11--11--| (x4)
A|------------------------------|-------------------------------|
E|------------------------------|-------------------------------|
Guitar 2
e|-----x-x--------x--------x--------x-x-------|-x---------x--------x--------x-----|
B|-----x-x--------x--------x--------x-x-------|-x---------x--------x--------x-----|
G|--6--x-x--4--4--x--2--2--x-2-2-2--x-x-2-2-2-|-x--4-4-4--x--6--6--x-6-6-6--x--6--|
D|--6--x-x--4--4--x--2--2--x-2-2-2--x-x-2-2-2-|-x--4-4-4--x--6--6--x-6-6-6--x--6--| (x4)
A|--4--x-x--2--2--x--0--0--x-0-0-0--x-x-0-0-0-|-x--2-2-2--x--4--4--x-4-4-4--x--4--|
E|-----x-x--------x--------x--------x-x-------|-x---------x--------x--------x-----|


Outro:

Guitar 1
e|---------------|--------------------------------------|
B|----9-----7----|---5------5------5-----5----7------9--|
G|----9-----8----|-----6------6-----------------8----9--|
D|-11-----9------|-7------7------7-----7----9-------11--|
A|---------------|--------------------------------------|
E|---------------|--------------------------------------|

Other versions of Get Right

Get rightChords

↓ Add and view comments below ↓

What do you think about this song and these tabs?

Add your comments, questions, rant or a thumbs up below.

Almost there ...

Sign in to get your own page with links to favourite songs and more. You are just one click away...

Login with Facebook Login with Google