Log in

One click and you are in

Login with Facebook Login with Google

Why sign up and log in

Guitar Tabs Explorer
Weezer guitar tabs for Feels like summer

Guitar tabs

Intro:
eb|---------------------------|---------------------------|
Bb|---------------------------|---------------------------|
Gb|---------------------------|---------------------------|
Db|----5h7-7----5h7-7--7p5----|---------------------------|
Ab|--7--------7------------7--|----3h5-5----3h5-5--5p3----|
Eb|---------------------------|--5--------5------------5--|
Verse 1:
eb|--5---5-x--5---5--5--|--7--7-x---------------|--5---5-x--5---5--5--|--7--7-x--5---5--5--|
Bb|--5---5-x--5---5--5--|--7--7-x--10---10--10--|--5---5-x--5---5--5--|--7--7-x--6---6--6--|
Gb|--5---5-x--5---5--5--|--9--9-x--10---10--10--|--5---5-x--5---5--5--|--9--9-x--7---7--7--|
Db|--7---7-x--7---7--7--|--9--9-x--10---10--10--|--7---7-x--7---7--7--|--9--9-x--7---7--7--| (x2)
Ab|--7---7-x--7---7--7--|--7--7-x---8----8---8--|--7---7-x--7---7--7--|--7--7-x--5---5--5--|
Eb|--5---5-x--5---5--5--|-----------------------|--5---5-x--5---5--5--|--------------------|


Pre-Chorus 1:
eb|---------------------------|-(3)-(3)-(3)-x-x--7--7--7--|
Bb|--10-10-10-10-10-10-10-10--|-(3)-(3)-(3)-x-x--7--7--7--|
Gb|--10-10-10-10-10-10-10-10--|--4---4---4--x-x--9--9--9--|
Db|--10-10-10-10-10-10-10-10--|--5---5---5--x-x--9--9--9--|
Ab|---8--8--8--8--8--8--8--8--|--5---5---5--x-x--7--7--7--|
Eb|---------------------------|--3---3---3--x-x-----------|

eb|---------------------------|-(3)-(3)-(3)-(3)-(3)-(3)-(3)-(3)-|--3~-|
Bb|--10-10-10-10-10-10-10-10--|-(3)-(3)-(3)-(3)-(3)-(3)-(3)-(3)-|--3~-|
Gb|--10-10-10-10-10-10-10-10--|--4---4---4---4---4---4---4---4--|--4~-|
Db|--10-10-10-10-10-10-10-10--|--5---5---5---5---5---5---5---5--|--5~-|
Ab|---8--8--8--8--8--8--8--8--|--5---5---5---5---5---5---5---5--|--5~-|
Eb|---------------------------|--3---3---3---3---3---3---3---3--|--3~-|


Chorus:
eb|--5---5---5-5--|---------3---3--3-3--x-3--3--|
Bb|--6---6---6-6--|-10--10--3---3--3-3--x-3--3--|
Gb|--7---7---7-7--|-10--10--5---5--5-5--x-4--4--|
Db|--7---7---7-7--|-10--10--5---5--5-5--x-5--5--| (x4)
Ab|--5---5---5-5--|--8---8--3---3--3-3--x-5--5--|
Eb|---------------|---------------------x-3--3--|

Pre-Verse:
eb|---------------------------|---------------------------|
Bb|---------------------------|---------------------------|
Gb|---------------------------|---------------------------|
Db|----5h7-7----5h7-7--7p5----|---------------------------|
Ab|--7--------7------------7--|----3h5-5----3h5-5--5p3----|
Eb|---------------------------|--5--------5------------5--|

Verse 2:
eb|--5---5-x--5---5--5--|--7--7-x---------------|--5---5-x--5---5--5--|--7--7-x--5---5--5--|
Bb|--5---5-x--5---5--5--|--7--7-x--10---10--10--|--5---5-x--5---5--5--|--7--7-x--6---6--6--|
Gb|--5---5-x--5---5--5--|--9--9-x--10---10--10--|--5---5-x--5---5--5--|--9--9-x--7---7--7--|
Db|--7---7-x--7---7--7--|--9--9-x--10---10--10--|--7---7-x--7---7--7--|--9--9-x--7---7--7--| (x2)
Ab|--7---7-x--7---7--7--|--7--7-x---8----8---8--|--7---7-x--7---7--7--|--7--7-x--5---5--5--|
Eb|--5---5-x--5---5--5--|-----------------------|--5---5-x--5---5--5--|--------------------|


Pre-Chorus 2:
eb|---------------------------|-(3)-(3)-(3)-x-x--7--7--7--|
Bb|--10-10-10-10-10-10-10-10--|-(3)-(3)-(3)-x-x--7--7--7--|
Gb|--10-10-10-10-10-10-10-10--|--4---4---4--x-x--9--9--9--|
Db|--10-10-10-10-10-10-10-10--|--5---5---5--x-x--9--9--9--|
Ab|---8--8--8--8--8--8--8--8--|--5---5---5--x-x--7--7--7--|
Eb|---------------------------|--3---3---3--x-x-----------|

eb|---------------------------|-(3)-(3)-(3)-(3)-(3)-(3)-(3)-(3)-|
Bb|--10-10-10-10-10-10-10-10--|-(3)-(3)-(3)-(3)-(3)-(3)-(3)-(3)-|
Gb|--10-10-10-10-10-10-10-10--|--4---4---4---4---4---4---4---4--|
Db|--10-10-10-10-10-10-10-10--|--5---5---5---5---5---5---5---5--|
Ab|---8--8--8--8--8--8--8--8--|--5---5---5---5---5---5---5---5--|
Eb|---------------------------|--3---3---3---3---3---3---3---3--|


Chorus:
eb|--5---5---5-5--|---------3---3--3-3--x-3--3--|
Bb|--6---6---6-6--|-10--10--3---3--3-3--x-3--3--|
Gb|--7---7---7-7--|-10--10--5---5--5-5--x-4--4--|
Db|--7---7---7-7--|-10--10--5---5--5-5--x-5--5--| (x4)
Ab|--5---5---5-5--|--8---8--3---3--3-3--x-5--5--|
Eb|---------------|---------------------x-3--3--|


Bridge:
eb|--5---5---5-5--|---------3---3--3-3--x-3--3--|
Bb|--6---6---6-6--|-10--10--3---3--3-3--x-3--3--|
Gb|--7---7---7-7--|-10--10--5---5--5-5--x-4--4--|
Db|--7---7---7-7--|-10--10--5---5--5-5--x-5--5--| (x2)
Ab|--5---5---5-5--|--8---8--3---3--3-3--x-5--5--|
Eb|---------------|---------------------x-3--3--|


Pre-Chorus 3:
eb|---------------------------|-(3)-(3)-(3)-x-x--7--7--7--|
Bb|--10-10-10-10-10-10-10-10--|-(3)-(3)-(3)-x-x--7--7--7--|
Gb|--10-10-10-10-10-10-10-10--|--4---4---4--x-x--9--9--9--|
Db|--10-10-10-10-10-10-10-10--|--5---5---5--x-x--9--9--9--|
Ab|---8--8--8--8--8--8--8--8--|--5---5---5--x-x--7--7--7--|
Eb|---------------------------|--3---3---3--x-x-----------|

eb|---------------------------|-(3)-(3)-(3)-(3)-(3)-(3)-(3)-(3)-|
Bb|--10-10-10-10-10-10-10-10--|-(3)-(3)-(3)-(3)-(3)-(3)-(3)-(3)-|
Gb|--10-10-10-10-10-10-10-10--|--4---4---4---4---4---4---4---4--|
Db|--10-10-10-10-10-10-10-10--|--5---5---5---5---5---5---5---5--|
Ab|---8--8--8--8--8--8--8--8--|--5---5---5---5---5---5---5---5--|
Eb|---------------------------|--3---3---3---3---3---3---3---3--|


Chorus:
eb|--5---5---5-5--|---------3---3--3-3--x-3--3--|
Bb|--6---6---6-6--|-10--10--3---3--3-3--x-3--3--|
Gb|--7---7---7-7--|-10--10--5---5--5-5--x-4--4--|
Db|--7---7---7-7--|-10--10--5---5--5-5--x-5--5--| (x4)
Ab|--5---5---5-5--|--8---8--3---3--3-3--x-5--5--|
Eb|---------------|---------------------x-3--3--|


Outro:
eb|--5---5---5-5--|---------3---3--3-3--x-3--3--|
Bb|--6---6---6-6--|-10--10--3---3--3-3--x-3--3--|
Gb|--7---7---7-7--|-10--10--5---5--5-5--x-4--4--|
Db|--7---7---7-7--|-10--10--5---5--5-5--x-5--5--| (x4)
Ab|--5---5---5-5--|--8---8--3---3--3-3--x-5--5--|
Eb|---------------|---------------------x-3--3--|

eb|---------------------------|---------------------------|
Bb|---------------------------|---------------------------|
Gb|---------------------------|---------------------------|
Db|----5h7-7----5h7-7--7p5----|---------------------------|
Ab|--7--------7------------7--|----3h5-5----3h5-5--5p3----|
Eb|---------------------------|--5--------5------------5--|


************************************

| x   Dead note
| (n) Ghost note
| h   Hammer-on
| p   Pull-off
| ~   Vibrato

Other versions of Feels Like Summer

Feels like summerChords

↓ Add and view comments below ↓

What do you think about this song and these tabs?

Add your comments, questions, rant or a thumbs up below.

Almost there ...

Sign in to get your own page with links to favourite songs and more. You are just one click away...

Login with Facebook Login with Google