Log in

One click and you are in

Login with Facebook Login with Google

Why sign up and log in

Guitar Tabs Explorer
Weezer guitar tabs for El scorcho

Guitar tabs with lyrics

Album: Pinkerton


Vers:

-----------------------------------
-----------------------------------
-------5v------------10v-----------
-----------6--------------11-------
----6------------11----------------
-4------------9--------------------

repeat
chorus:

-----------------------------------
-----------------------------------
-------5v------------10v-----------
-----------6--------------11-------
----6------------11----------------
-4------------9--------------------


Bridge:

-----------------------------------------------------------
-----------------------------------------------------------
-----------------------------------------------------------
-------------6-6-6-6-6-6-------------8-8-8-8-8-8-----------  3X
-6-6-6-6-6-6-4-4-4-4-4-4-8-8-8-8-8-8-6-6-6-6-6-6-----------
-4-4-4-4-4-4-------------6-6-6-6-6-6-----------------------

-----------------------------------------------------------
-----------------------------------------------------------
-------5v------------10v------------5v------------10v------
-----------6--------------11------------6--------------11--
----6------------11--------------6------------11-----------
-4------------9---------------4------------9---------------

solo:

-------------------13--12--18--16--15h-16--20------18s-20--
-11--13-----9--11------------------------------------------
---------9-------------------------------------17----------
-----------------------------------------------------------
-----------------------------------------------------------
-----------------------------------------------------------



song:  el scorcho solo
artist:  weezer
album:  pinkerton

This is the solo to el scorcho.  It is fairly simple.  You will have
to figure out the timing on your own.

E-----------------------------------13---11--------18-16-15/16\15-
B----11---13---------------11-----------------------------------------
G-----------------------13--------------------------------------------
D-----------------14--------------------------------------------------
A---------------------------------------------------------------------
E---------------------------------------------------------------------


E----------------------20-------------18/\----------------------------
B----16b--------------------16----------------------------------------
G---------------------------------------------------------------------
D---------------------------------------------------------------------
A---------------------------------------------------------------------
E---------------------------------------------------------------------



Well, I find it surprising that no one has yet tabbed this song,
especially since the main verse seems quite easy to play.  At the moment,
I do not have "Pinkerton" with me, so i therefore am unable to figure out
the chorus or other parts.  But, nevertheless, i figured that this would
at least help someone figure out the rest of this song or at least show
them how to play the basic riff.  As always, send any corrections to the
people that handle that sort of thing.

          ----------------------------------------------
          ----------------------------------------------
          -------4-----------9-----------4-----------9--
          -----4-----------9-----------4-----------9----
          ---2------2----7------7----2------2----7------
          ----------------------------------------------
            (A chord diagramB5B5)        (A chord diagramE5E5)        (A chord diagramB5B5)        (A chord diagramE5E5)

Also, if you have ever heard the song, I think it is quite obvious how to
play the arpeggiated chords.  And, I am pretty sure that the chorus and
the other parts of the song revolve about this main riff.


From penelob9@mail.idt.net Sat Jan 11 15:50:41 1997


WEEZER
									       							 "El Scorcho"
																											 -
																			Written by Rivers Cuomo
																Transcribed by Pablo Esquivel


This song is super easy, the solo is even pretty easy. I tabbed
it in about half an hour. I use "power chords" for the chorus,
and that sounds pretty close. I've played the whole thing with
the C.D., and it's right. Here goes. The ^×s mean vibrato.


INTRO/VERSE     (basically goes through whole song)

    A chord diagramAbAb        A chord diagramDbDb        Do that 3X, then throw in:
e----------------------|---------------------------------------
B-----------------6^×---|-----------------8^×--------------------
G-------5^×-------------|-------5^×------------------------------
D---------------6---6--|---------------8---8-------------------
A-----6---6---4--------|-----6---6---6-------------------------
E---4------------------|---4-----------------------------------


CHORUS

    A chord diagramAbAb        A chord diagramDbDb        You may want to play this the 4th X
e----------------------|---------------------------------------
B----------------------|---------------------------------------
G-------------6-6-6-6--|-------------8-8-8-8-------------------
D---6-6-6-6---6-6-6-6--|---6-6-6-6---8-8-8-8-------------------
A---6-6-6-6---4-4-4-4--|---6-6-6-6---6-6-6-6-------------------
E---4-4-4-4------------|---4-4-4-4-----------------------------


FAST PART

    A chord diagramAbAb        A chord diagramDbDb        A chord diagramBb majorBb        A chord diagramEb MajorEb
e--------------------------------------------------------------
B-------------6-6-6-6-------------8-8-8-8----------------------
G---6-6-6-6---6-6-6-6---8-8-8-8---8-8-8-8----------------------
D---6-6-6-6---4-4-4-4---8-8-8-8---6-6-6-6----------------------
A---4-4-4-4-------------6-6-6-6--------------------------------
E--------------------------------------------------------------


SOLO

e--------------------------------------------------------------
B--------------------------------11--9--8h9-------13------11h13
G--------------------------9-8---------------8-----------------
D---8------10--------6--8-----------------------------13-------
A-------------7------------------------------------------------
E--------------------------------------------------------------


Then just play the intro as the outro, and you're set.


Album: Pinkerton (DGC)
Words and music by: River Cuomo

Tuning: A chord diagramEb MajorEb - A chord diagramAbAb - A chord diagramDbDb - A chord diagramGbGb - A chord diagramBb majorBb - A chord diagramEb MajorEb

This is the solo to El Scorcho which starts at approximately 2:25. It's
pretty easy to play. There were already transcription of this solo but
there are little errors in them; not big but they're there :)  I think
my version is correct. I tabbed it for a guitar tuned in A chord diagramEb MajorEb like River
but if your guitar is tuned in A chord diagramE MajorE just play each note one case lower.

-----------------------------14--12~~------19--17---16h17--------21-------19h21---------
--------14-------------------19--17~~----------------------17--------------------------
-/16~~---------------14--16------------------------------------------19----------------
------------15~~-----------------------------------------------------------------------
---------------------------------------------------------------------------------------
---------------------------------------------------------------------------------------
                             |------|*

*for this part, I tabbed two differents fingering. They are both the
same notes. I just didn't really knew which one was easier to play so
just choose the one that suits you the best :)

Any comments or corrections, mail me: corporal@total.net

Other versions of El Scorcho

El scorchoChords
El scorcho acousticChords

↓ Add and view comments below ↓

What do you think about this song and these tabs?

Add your comments, questions, rant or a thumbs up below.

Almost there ...

Sign in to get your own page with links to favourite songs and more. You are just one click away...

Login with Facebook Login with Google