Log in

One click and you are in

Login with Facebook Login with Google

Why sign up and log in

Guitar Tabs Explorer
Weezer guitar tabs for Dope nose

Guitar tabs with lyrics

Tabbed by Charles Benagh

Weezer - Dope Nose
Album - Maladroit

Equipment: It's pretty straightforward - no effects, just guitar --> amp
           Sounds awesome with a strat through a Mesa/Boogie Mark IIC+

***Alternate Tuning: [Eb, Ab, Db, Gb, Bb, Eb]

Legend:  p - pull off
         h - hammer on
         ^ - bend note
         / or \ - slide
         x# - palm mute

Intro (distortion, bridge pickup)

eb-|--------------|
Bb-|--------------|
Gb-|--4---4--4-4--|
Db-|--4---4--4-2--|  x 4 times
Ab-|--2---2--2-2--|
Eb-|-----------0--|


Verse (mostly palm muted)  x 2 times
*Let the last chord of each measure ring out
                                                         *1st ending
eb-|----------------|----------------|----------------|-------------------|
Bb-|----------------|----------------|----------------|-------------------|
Gb-|-x4---x4--x4-4--|-x4---x4--x4-4--|----------------|-x4--x4------------|
Db-|-x4---x4--x4-2--|-x4---x4--x4-2--|-x4---x4--x4-4--|-x4--x4--/4-4------|
Ab-|-x2---x2--x2-2--|-x2---x2--x2-2--|-x4---x4--x4-4--|-x2--x2-------6-4--|
Eb-|-------------0--|-------------0--|-x2---x2--x2-2--|-------------------|

                                                         *2nd ending
                                                       |------------------|
                                                       |-------5------5---|
                                                       |--4----4---4--4---|
                                                       |--4----2---4--2---|
                                                       |--2--------2------|
                                                       |------------------|

Chorus (distortion)  x 2 times

eb-|-------------|--------------------|---------------|-------------------|
Bb-|-------------|--------------------|---------------|-------------------|
Gb-|------4--4---|--------------------|-------4---4---|-------------------|
Db-|--2---4--4---|--4---4--4-4-4-4-4--|--2----4---4---|--4---4--4-4-4-4-4-|
Ab-|--2---2--2---|--4---4--4-4-4-4-4--|--2----2---2---|--4---4--4-4-4-4-4-|
Eb-|--0----------|--2---2--2-2-2-2-2--|--0------------|--2---2--2-2-2-2-2-|

                  *2nd guitar                   *2nd guitar (1st time only)
                 |--6h7p6p4-----------|              |--------------------|
                 |----------7-4-------|              |-2h4-2h4--2h4-2-----|
                 |--------------6-4-6-|              |----------------4-4-|
                 |--------------------|              |--------------------|
                 |--------------------|              |--------------------|
                 |--------------------|              |--------------------|


Bridge

eb-|--------------|--17p14p12--17p14p12-|-17p14-14--14p12-----|
Bb-|--------------|---------------------|-----------------15--|
Gb-|--------------|---------------------|---------------------|
Db-|--5--5--5--5--|---------------------|---------------------| intro
Ab-|--5--5--5--5--|---------------------|---------------------|
Eb-|--3--3--3--3--|---------------------|---------------------|


Solo
  (switch to neck pickup, or possibly use a fuzz pedal)
eb-|---------------------------------------|------------------------------|
Bb-|--/12p10----10----10-------------------|------------------------------|
Gb-|---------11----11----11---9p7-9p7------|-9p7---7-----------------7h9--|
Db-|----------------------------------9p7--|-----9---9p7-9-------7h9------|
Ab-|---------------------------------------|-----------------7h9----------|
Eb-|---------------------------------------|------------------------------|

eb-|-----9----------------11--9--|-9---8--8--/12--11--11--9---9----17--16-|
Bb-|-----10^--------------12--10-|-10--9--9--/13--12--12--10--10---17--16-|
Gb-|-/11-----11-9-9-8-8----------|----------------------------------------|
Db-|-----------------------------|----------------------------------------|
Ab-|-----------------------------|----------------------------------------|
Eb-|-----------------------------|----------------------------------------|

eb-|-16--16-17-16-14-16-17-16-14----14-16-17-16-14-19\7--7---7--7\-|
Bb-|-----------------------------17-------------------7--7---7--7\-|
Gb-|---------------------------------------------------------------|
Db-|---------------------------------------------------------------| chorus
Ab-|---------------------------------------------------------------|
Eb-|---------------------------------------------------------------|


Outro
eb-|------------------------|
Bb-|--5-----5-----5--5------|
Gb-|--4--4--4--4--4--4--4\--|
Db-|--2--4--2--4--2--2--4\--|
Ab-|-----2-----2--------2\--|
Eb-|------------------------|


Song pattern:

Intro  -  4x

Verse  -  2x

Chorus -  2x

Intro  -  2x

Verse  -  2x

Chorus -  2x

Bridge

Intro  -  2x

Solo

Chorus -  2x

Bridge

Intro  -  3x

Outro

*This is all my own work

Other versions of Dope Nose

Dope noseChords
Dope nose (Ver. 2)Chords

↓ Add and view comments below ↓

What do you think about this song and these tabs?

Add your comments, questions, rant or a thumbs up below.

Almost there ...

Sign in to get your own page with links to favourite songs and more. You are just one click away...

Login with Facebook Login with Google