Log in

One click and you are in

Login with Facebook Login with Google

Why sign up and log in

Guitar Tabs Explorer
Weezer bass tabs for Do you wanna get high

Bass tabs

Tuning: Standard


[Verse 1]

This verse doesn't have any bass but here's the notes if you want to play it:
G|---------------------------------------------------------------|
D|---------------------------------------------------------------|  X2
A|6-6-6-6-6-6-6-6-----------------4-4-4-4------------------------|
E|----------------4-4-4-4-4-4-4-4---------1-1-1-1-2-2-2-2-1-1-1-1|

[Chorus 1]

G|---------------------------------------------------------------|
D|---------------------------------------------------------------|  X4
A|6-6-6-6-6-6-6-6-----------------4-4-4-4------------------------|
E|----------------4-4-4-4-4-4-4-4---------1-1-1-1-2-2-2-2-1-1-1-1|


[Verse 2]

G|---------------------------------------------------------------|
D|---------------------------------------------------------------|  X2
A|6-6-6-6-6-6-6-6-----------------4-4-4-4------------------------|
E|----------------4-4-4-4-4-4-4-4---------1-1-1-1-2-2-2-2-1-1-1-1|


[Chorus 2]

G|---------------------------------------------------------------|
D|---------------------------------------------------------------|  X3
A|6-6-6-6-6-6-6-6-----------------4-4-4-4------------------------|
E|----------------4-4-4-4-4-4-4-4---------1-1-1-1-2-2-2-2-1-1-1-1|

G|-----------------------------------------------------------------|
D|-----------------------------------------------------------------|
A|6-6-6-6-6-6-6-6-----------------4-4-4-4-------------------------6| Hold last note for 2 seconds
E|----------------4-4-4-4-4-4-4-4---------1-1-1-1-2-2-2-2-1-1-1-1--|


[Bridge]

G|---------------------------------------------------------------|
D|---------------------------------------------------------------|  X4
A|2-2-2-2-2-2-2-2-4-4-4-4-4-4-4-4-----------------6-6-6-6-6-6-6-6|
E|--------------------------------6-6-6-6-6-6-6-6----------------|


[Guitar Solo]

G|---------------------------------------------------------------|
D|---------------------------------------------------------------|  X4
A|6-6-6-6-6-6-6-6-----------------4-4-4-4------------------------|
E|----------------4-4-4-4-4-4-4-4---------1-1-1-1-2-2-2-2-1-1-1-1|


[Chorus 1]

First part is just guitar. Bass comes in at second line: "I took a road trip to Mexico"
G|---------------------------------------------------------------|
D|---------------------------------------------------------------|  X3
A|6-6-6-6-6-6-6-6-----------------4-4-4-4------------------------|
E|----------------4-4-4-4-4-4-4-4---------1-1-1-1-2-2-2-2-1-1-1-1|


[Outro]

G|---------------------------------------------------------------|
D|---------------------------------------------------------------|
A|6-6-6-6-6-6-6-6-----------------4-4-4-4------------------------|
E|----------------4-4-4-4-4-4-4-4---------1-1-1-1-2-2-2-2-1-1-1-1|

G|-----------------------------------------------------------------|
D|-----------------------------------------------------------------|
A|6-6-6-6-6-6-6-6-----------------4-4-4-4--------------------------| Hold last note
E|----------------4-4-4-4-4-4-4-4---------1-1-1-1-2-2-2-2-1-1-1-1-6|


************************************

| x   Dead note
| g   Grace note
| (n) Ghost note
| h   Hammer-on
| p   Pull-off
| r   Release
| >   Accented note
| t   Tapping
| b   Bend
| br  Bend release
| pb  Pre-bend
| pbr Pre-bend release
| /   Slide up
| \   Slide down
| ~   Vibrato
| s   Slap
| P   Pop
| PM  Palm mute
| TR  Trill
| N   Tremolo

↓ Add and view comments below ↓

What do you think about this song and these tabs?

Add your comments, questions, rant or a thumbs up below.

Almost there ...

Sign in to get your own page with links to favourite songs and more. You are just one click away...

Login with Facebook Login with Google