Log in

One click and you are in

Login with Facebook Login with Google

Why sign up and log in

Guitar Tabs Explorer
Weezer guitar tabs for Cygnus x 1

Guitar tabs

Intro:
0:02

    A chord diagramA majorA           A chord diagramE MajorE        A chord diagramD MajorD        A chord diagramA majorA

E|--9---9---9---7--7--7--5--5--5--5-------5--|
B|--10--10--10--9--9--9--7--7--7--5--5h7-----|
G|--9---9---9---9--9--9--7--7--7--6----------|   x4
D|--------------------------------7----------|
A|-------------------------------------------|
E|-------------------------------------------|

Part 1:
0:18

    A chord diagramD MajorD      A chord diagramE MajorE           A chord diagramD MajorD   A chord diagramE MajorE        A chord diagramD MajorD     A chord diagramE MajorE        A chord diagramA majorA

E|----------------------------5--4--5-----5--7--8--5--5--5--|
B|-----------------5--5/7--5-----------5--------------------|
G|--6--6-----6--7-------------------------------------------|
D|----------------------------------------------------------|
A|--------7-------------------------------------------------|
E|----------------------------------------------------------|

Interlude:
0:27

    A chord diagramA majorA           A chord diagramE MajorE        A chord diagramD MajorD        A chord diagramA majorA

E|--9---9---9---7--7--7--5--5--5--5-------5--|
B|--10--10--10--9--9--9--7--7--7--5--5h7-----|
G|--9---9---9---9--9--9--7--7--7--6----------|   x2
D|--------------------------------7----------|
A|-------------------------------------------|
E|-------------------------------------------|

Part 2:
0:35

    A chord diagramD MajorD      A chord diagramE MajorE           A chord diagramD MajorD   A chord diagramE MajorE        A chord diagramD MajorD     A chord diagramE MajorE        A chord diagramFF                    A chord diagramC majorC

E|----------------------------5--4--5-----5--7--8--5--5--5--------5--7-----------------------|
B|-----------------5--5/7--5-----------5--------------------5--5--------8--8--8--5--5--------|
G|--6--6-----6--7----------------------------------------------------------------------7--5--|
D|-------------------------------------------------------------------------------------------|
A|--------7----------------------------------------------------------------------------------|
E|-------------------------------------------------------------------------------------------|

    A chord diagramFF                                A chord diagramE MajorE     A chord diagramFF           A chord diagramE MajorE        A chord diagramFF        A chord diagramE MajorE                A chord diagramA majorA

E|--5--5-----5--------5--7--5--5--7--4-------------------------------------------------------------|
B|--------5-----5--5-----------------------8--8--8--5--8b10--8--8--8--8--8b10r8--5-----------------|
G|----------------------------------------------------------------------------------7--5--6--6--6--|
D|-------------------------------------------------------------------------------------------------|
A|-------------------------------------------------------------------------------------------------|
E|-------------------------------------------------------------------------------------------------|

Interlude:
0:55

    A chord diagramA majorA           A chord diagramE MajorE        A chord diagramD MajorD        A chord diagramA majorA

E|--9---9---9---7--7--7--5--5--5--5-------5--|
B|--10--10--10--9--9--9--7--7--7--5--5h7-----|
G|--9---9---9---9--9--9--7--7--7--6----------|   x2
D|--------------------------------7----------|
A|-------------------------------------------|
E|-------------------------------------------|

Part 2:
1:03

    A chord diagramD MajorD      A chord diagramE MajorE           A chord diagramD MajorD   A chord diagramE MajorE        A chord diagramD MajorD     A chord diagramE MajorE        A chord diagramFF                    A chord diagramC majorC

E|----------------------------5--4--5-----5--7--8--5--5--5--------5--7-----------------------|
B|-----------------5--5/7--5-----------5--------------------5--5--------8--8--8--5--5--------|
G|--6--6-----6--7----------------------------------------------------------------------7--5--|
D|-------------------------------------------------------------------------------------------|
A|--------7----------------------------------------------------------------------------------|
E|-------------------------------------------------------------------------------------------|

    A chord diagramFF                                A chord diagramE MajorE     A chord diagramFF           A chord diagramE MajorE        A chord diagramFF        A chord diagramE MajorE                A chord diagramA majorA

E|--5--5-----5--------5--7--5--5--7--4-------------------------------------------------------------|
B|--------5-----5--5-----------------------8--8--8--5--8b10--8--8--8--8--8b10r8--5-----------------|
G|----------------------------------------------------------------------------------7--5--6--6--6--|
D|-------------------------------------------------------------------------------------------------|
A|-------------------------------------------------------------------------------------------------|
E|-------------------------------------------------------------------------------------------------|


Outro:
1:23

    A chord diagramA majorA           A chord diagramE MajorE        A chord diagramA majorA           A chord diagramE MajorE        A chord diagramA majorA           A chord diagramE MajorE        A chord diagramA majorA

E|--9---9---9---7--7--7--9---9---9---7--7--7--9---9---9---7--7--7--9---9---9------9---|
B|--10--10--10--9--9--9--10--10--10--9--9--9--10--10--10--9--9--9--10--10--10-----10--|
G|--9---9---9---9--9--9--9---9---9---9--9--9--9---9---9---9--9--9--9---9---9------9---|
D|------------------------------------------------------------------------------------|
A|------------------------------------------------------------------------------------|
E|------------------------------------------------------------------------------------|

↓ Add and view comments below ↓

What do you think about this song and these tabs?

Add your comments, questions, rant or a thumbs up below.

Almost there ...

Sign in to get your own page with links to favourite songs and more. You are just one click away...

Login with Facebook Login with Google