Log in

One click and you are in

Login with Facebook Login with Google

Why sign up and log in

Guitar Tabs Explorer
Weezer guitar chords for Crab

Guitar chords

Album: WEEZER (GREEN)
Notes: I was, quite honestly, too lazy to write out rhythm tabs for this,
its
not so hard to follow anyway, if you know the song.
P.S.: The riff could be wrong. Help me out if you come up with it.
Contact: Nate (zero606@excite.com)
Intro
Gtr. 1
  A chord diagramC5C5              A chord diagramE5E5              A chord diagramD5D5              A chord diagramC5C5
Gtr. 2
e-----------------------------------------------------------------
B-----------------------------------------------------------------
G-5-5-5-5-5-5-5-5-4-4-4-4-4-4-4-4-7-7-7-7-7-7-7-7-5-5-5-5-5-5-5-5-
D-x-x-x-x-x-x-x-x-x-x-x-x-x-x-x-x-x-x-x-x-x-x-x-x-x-x-x-x-x-x-x-x-
A-3-3-3-3-3-3-3-3-2-2-2-2-2-2-2-2-5-5-5-5-5-5-5-5-3-3-3-3-3-3-3-3-
E-----------------------------------------------------------------

Gtr. 1
  A chord diagramA5A5              A chord diagramF5F5              A chord diagramE5E5
Gtr. 2
e-----------------------------------------
B-----------------------------------------
G-5-5-5-5-5-5-5-5-5-5-5-5-5-5-5/7-4-4-4-4-
D-7-7-7-7-7-7-7-7-7-7-7-7-7-7-7/9-5-5-5-5-
A-----------------------------------------
E-----------------------------------------


Riff
Gtrs. 1 and 2
e-------------
B-------------
G-------5-7-9-
D-2-5-7-x-x-x-
A-x-x-x-3-5-7-
E-0-3-5-------

Verse
Gtr. 1 and 2
A chord diagramA5A5 A chord diagramF5F5 A chord diagramE5E5 A chord diagramF5F5 A chord diagramA5A5 A chord diagramC5C5 A chord diagramF5F5 A chord diagramE5E5


Chorus
Gtr. 1 and 2
A chord diagramF5F5 A chord diagramC5C5 A chord diagramF5F5 A chord diagramG5G5 A chord diagramC5C5


Bridge
Gtr. 1 and 2
play Gtr. 1's part from intro.


Solo
Gtr. 1

Intro Chords
Gtr. 2
e-----------------------------------------------------------------------------
B--------------------------------------------------------------------8--------
G-5~-------5~--------------------9~-7h9p7------------9~~~-9-7----7-9~-7-9-7-
D---7--5-7---7---5-7-7~-5h7p5-------------10~-7-5-------------10-----------10-10
A----7---------7--------------8~------------------8~--------------------------
E-----------------------------------------------------------------------------

Song Structure

Intro

Riff

Verse

Chorus

Verse

Chorus

Bridge

Solo

Bridge

Riff

Verse

Chorus (repeats)

↓ Add and view comments below ↓

What do you think about this song and these chords?

Add your comments, questions, rant or a thumbs up below.

Almost there ...

Sign in to get your own page with links to favourite songs and more. You are just one click away...

Login with Facebook Login with Google