Log in

One click and you are in

Login with Facebook Login with Google

Why sign up and log in

Guitar Tabs Explorer
Weezer guitar tabs for Come to my pod

Guitar tabs with lyrics

Weezer
"Come To My Pod"
Songs From The Black Hole (c.1996)
    "..Come to my pod.     There's no one there, we'll be alone."
D#|-----------------------------------------9------7---5----------------------|
A#|--------------------------------4--5-------------------7--9----------------|
F#|--------------7-----777----------------------------------------------------|
C#|--------------7-----777----------------------------------------------------|
G#|--------------5-----555----------------------------------------------------|
D#|---------------------------------------------------------------------------|

   "..We can talk. And if you want to, we'll get stoned."
D#|-----------5---------------------------------------------------------------|
A#|---7---9-------------------------------------------------------------------|
F#|--------------777-----------7---------7----6----1--------------------------|
C#|--------------777-----------7---------7----6----2--------------------------|
G#|--------------555-----------5---------5----2----2-------------------------|
D#|---------------------------------------------------------------------------|

   "..and relax."    "Have fun."                      "In my pod
D#|------------------------------1/2/1/2-2--------------------------2^--------|
A#|------------------------------2/3/2/3-3--------------------------3^--------|
F#|--7-----------777-------------1/2/1/2-2--------------------------2^--------|
C#|--7-----------777----------------------------------------------------------|
G#|--5-----------555----------------------------------------------------------|
D#|---------------------------------------------------------------------------|

    "In your pod.."        "no one knows the things we do."
D#|---------------------------------------------------------------------------|
A#|---------------------------------------------------------------------------|
F#|------------7-----777----7---7-----7--7----6-----7-------------------------|
C#|------------7-----777----7---7-----7--7----6-----7---7---------------------|
G#|------------5-----555----5---5-----5--5----4-----5---7---------------------|
D#|-----------------------------------------------------5---------------------|

   "We'll get high.."        "If you want to we'll sniff glue"
D#|---------------------------------------------------------------------------|
A#|---------------------------------------------------------------------------|
F#|---6----------7-------777------------7------6------------1-----------------|
C#|---6----------7-------777------------7------6------------2-----------------|
G#|---4----------5-------555------------5------4------------2-----------------|
D#|---------------------------------------------------------------------------|

   "and relax"          "Have fun"                 "In your pod.."
D#|----------------------------------1/2/1/2-2--------------------------------|
A#|----------------------------------2/3/2/3-3--------------------------------|
F#|--7------------777----------------1/2/1/2-2------------7------7---777------|
C#|--7------------777-------------------------------------7------7---777------|
G#|--5------------555-------------------------------------5------5---555------|
D#|---------------------------------------------------------------------------|

   "In your pod"        "There's no one there, we'll be alone"
D#|---------------------------------------------------------------------------|
A#|---------------------------------------------------------------------------|
F#|--7-------------777---------7----------------------------------------------|
C#|--7-------------777---------7-----------------------------7----------------|
G#|--5-------------555---------5-----------------------------7----------------|
D#|----------------------------------------------------------5----------------|

   "we can talk"         "And make love the whole night through"
D#|---------------------------------------------------------------------------|
A#|---------------------------------------------------------------------------|
F#|--7--------------77---------------7---------7-----6-------1----------------|
C#|--7--------------77---------------7---------7-----6-------2----------------|
G#|--5--------------55---------------5---------5-----4-------2----------------|
D#|---------------------------------------------------------------------------|

    "and relax.."        "have fun."               "In your pod"
D#|-----------------------------------1/2/1/2-2--------------------------------------|
A#|-----------------------------------2/3/2/3-3--------------------7-(let ring)------|
F#|--7-------------777----------------1/2/1/2-2--------------------7-----------------|
C#|--7-------------777---------------------------------------------5-----------------|
G#|--5-------------555---------------------------------------------------------------|
D#|----------------------------------------------------------------------------------|


Stop ring:
(No Music)

Now that we're left all alone
Touch me and kiss me and
          love me
D#|--------------|
D#|--------------|  strum note upward and let ring
D#|------7-------|
D#|------7-------|
D#|------5-------|
D#|--------------|


***********************************
| /  Slide up
| ^  Vibrato

Other versions of Come To My Pod

Come to my podChords

↓ Add and view comments below ↓

What do you think about this song and these tabs?

Add your comments, questions, rant or a thumbs up below.

Almost there ...

Sign in to get your own page with links to favourite songs and more. You are just one click away...

Login with Facebook Login with Google