Log in

One click and you are in

Login with Facebook Login with Google

Why sign up and log in

Guitar Tabs Explorer
Weezer guitar tabs for Cold dark world

Guitar tabs

Cold Dark World - Weezer
~ ~ ~ ~ ~ ~ ~ ~ ~ ~ ~ ~ ~ ~ ~ ~ ~ ~ ~ ~ ~ ~ ~ ~ ~ ~ ~ ~ ~ ~ ~ ~ ~ ~ ~ ~ ~
Tabbed by: greg

Cold Dark World by Weezer
From The Red Album
Tuning: Standard

Ok this is my first tab but i think it's pretty good.
However, i'm not sure the solo is totally correct.


Intro - Clean (0:00-0:12)
e|---------------------------------------------------------------------|
B|---------------------------------------------------------------------|
G|---------------------------------------------------------------------|
D|--9-9-9-9-9-9-9-9-9-9-9-9-9-9-9-9--9-9-9-9-9-9-9-9--9-9-9-9-9-9-9-9--|
A|-7-7-7-7-7-7-7-7-7-7-7-7-7-7-7-7--5-5-5-5-5-5-5-5--------------------|
E|---------------------------------------------------7-7-7-7-7-7-7-7---|


Verse 1 - Clean (0:12-0:38) Palm Muted and strike the strings softly
e|------------------------------|
B|------------------------------|
G|------------------------------|  x2
D|-9--[x32]--7--[x16]-----[x16]-|
A|-7---------5---------9--------|
E|---------------------7--------|


Chorus - Distortion (0:38-1:04)
e|-----------------------------------------------|
B|-----------------------------------------------|
G|-----------------------------------------------|  x2
D|----10-9--7---5--4--2----10-9-9--7--5--2-------|
A|----10-9--7---5--4--2----10-9-9--7--5--2-------|
E|----8--7--5---3--2--0----8--7-7--5--3--0-------|

Verse 2 (1:04-1:30)
Same as Verse 1

Repeat Chorus (1:30-1:56)
Same as first chorus


Bridge (1:56-2:09)
e|-------------------------------------------------------------------|
B|-------------------------------------------------------------------|
G|-------------------------------------------------------------------|
D|-------------------------------------------------------------------|
A|--3-3-3-3-3-3-3-3-5-5-5-5-5-5-5-5-7-7-7-7-7-7-7-7-7-7-7-7-7-7-7-7--|
E|-------------------------------------------------------------------|

e|-------------------------------------------------------------------|
B|-------------------------------------------------------------------|
G|-------------------------------------------------------------------|
D|-------------------------------------------------------------------|
A|-9-9-9-9-9-9-9-9-12-12-12-12-12-12-12-12-15-15-15-15-15-15-15-15---|
E|-------------------------------------------------------------------|

e|-------------------------------------------------|
B|-------------------------------------------------|
G|-------------------------------------------------|
D|-------------------------------------------------|
A|-17-17-17-17-17-17-17-17-------------------------|
E|-------------------------------------------------|


Bridge Part Two (2:10-2:35)
(Nah Nah Nah Nah)

       [x3]        [x1]           [x2]
e|--------------|-----------|-------------|-------------------|
B|--7b--5-------|-----------|--7b--5------|--7^--9^--11^--12^-|
G|---------7--4-|--2----4-1-|-------7--4--|-------------------|
D|--------------|-----------|-------------|-------------------|
A|--------------|-----------|-------------|-------------------|
E|--------------|-----------|-------------|-------------------|


Chorus #3 (2:36-3:02)

Chorus #4 (3:03-3:27)


Outro (3:28-3:50)
(Wooo hooo hooo)
e|-------------------------------------------------------|
B|-------------------------------------------------------|
G|-------------------------------------------------------|
D|--10-9--7---5--4--2----10-9--7---5-5--2~~--------------|
A|--10-9--7---5--4--2----10-9--7---5-5--2~~--------------|
E|--8--7--5---3--2--0----8--7--5---3-3--0~~--------------|

And thats it! Hope this tab helps
Go Weezer!

Other versions of Cold Dark World

Cold dark worldChords

↓ Add and view comments below ↓

What do you think about this song and these tabs?

Add your comments, questions, rant or a thumbs up below.

Almost there ...

Sign in to get your own page with links to favourite songs and more. You are just one click away...

Login with Facebook Login with Google