Log in

One click and you are in

Login with Facebook Login with Google

Why sign up and log in

Guitar Tabs Explorer
Weezer guitar tabs for Cleopatra

Guitar tabs

Title: Cleopatra

A chord diagramA majorA arpeggio
\ slide down
Palm mute top 2 strings.
Tuning (eb A chord diagramA majorA A chord diagramD MajorD A chord diagramG MajorG A chord diagramBB A chord diagramE MajorE), Up ~ 25.1%, (eb, A chord diagramD MajorD) Up ~ 15.1%
Live 1/2 Step Down (eb ab db gb bb eb), Up ~ 25.1%, (eb, db) Up ~ 15.1%
Key: (A chord diagramF#F# + A chord diagramD#D#)


----|------------------------|--|-------|
----|----------------7--7----|--|-------|
----|----6---6-6---6-6--6-6--|--|-------|
----|-8--8---8-8-8-8-8--8-8--|--|-4-----|
----|-9--9---9-9-9-9------9--|--|-4-----|
----|-7----------7-----------|--|-3-----|
                                  A chord diagramA majorA

  Intro/Verse Palm Muted (No Drums)


----|---------------|--|----------------------------------|
----|---------------|--|----------------------------------|
----|---------------|--|----------------------------------|
----|---------------|--|-21\20--21\20--18-16-18-20\18-16--|
----|-9---9---6-----|--|----------------------------------|
----|-8---7---5-----|--|----------------------------------|


  Chorus



----|-----------------|--|---------------|
----|-----------------|--|---------------|
----|-----------------|--|---------------|
----|-----------------|--|---------------|
----|-4---6---1---4---|--|-8-------------|
----|-5---5---0---3---|--|-7-------------|


Bridge 1


----|------------------|
----|------------------|
----|------------------|
----|-----------6-6-8--|
----|-1-1-1-1-1-6-6-6--|
----|-0-0-0-0-0--------|


  Bridge 2



----|---------|-------------|
----|---------|-------------|
----|---------|-------------|
----|---------|-------------|
----|-1-------|-------------|
----|-0-------|-------------|
                Chorus Riff

  G1 Solo

Other versions of Cleopatra

CleopatraChords

↓ Add and view comments below ↓

What do you think about this song and these tabs?

Add your comments, questions, rant or a thumbs up below.

Almost there ...

Sign in to get your own page with links to favourite songs and more. You are just one click away...

Login with Facebook Login with Google